Guitaretab - guitar tabs
Song name
# A B C D E F G H I J K L M N O P Q R S T U V W X Y Z

Sham 69 - Rip And Tear tab

Sham 69 - Rip and tear

Fills for Verse
e:---------------------------|
b:---------------------------|
g:2-2-----2------------------|
d:2-2-----2-----5-4----------|
a:0-0-0---0-3--3---53--5-3---|
e:------3b-----------5-----5-|

e:----------------------------|
b:----------------------------|
g:4-4-------------------------|
d:4-4-------0-----------------|
a:2-2-2-0-2------------0---0--|
e:------------3-3-3-3-3---3---|


Chorus:
e:------------|-----------|
b:------------|7--------7-|
g:6---------6-|7--------7-|
d:7---------7-|7--------7-|4x
a:7---------7-|5--------5-|
e:5---------5-|-----------|

Verse
Chorus
[ Tab from: http://www.guitaretab.com/s/sham-69/188932.html ]
Bridge:
e:--------------------|--------------------|--------------------|--------------------|
b:--------------------|--------------------|--------------------|--------------------|
g:--------------------|--------------------|--------------------|--------------------|
d:--------1---2---3-4-|--------1---2---3-4-|--------1---2---3-4-|--------1---2---3-4-|
a:2-2-2-2---2---2-----|2-2-2-2---2---2-----|2-2-2-2---2---2-----|2-2-2-2---2---2-----|
e:--------------------|--------------------|--------------------|--------------------|

e:--------------------|--------------------|--------------------|----------|
b:--------------------|--------------------|5-5-5-5-3--3--------|2-2-4-2-0-|
g:--------1---2---3-4-|--------1---2---3-4-|------------4-4-4---|----------|
d:2-2-2-2---2---2-----|2-2-2-2---2---2-----|------------------5-|----------|
a:--------------------|--------------------|--------------------|----------|
e:--------------------|--------------------|--------------------|----------|

e:----------------------------|
b:----5---3-------------------|
g:4-4---------4-4----7-----7--|
d:4-4---------4-4-7-9--7-9----| 2x
a:2-2---------2-2-------------|
e:----------------------------|

Refrain
Verse (just use the first Fill)


thatīs maybe not 100% correct, but I think itīs ok
Related for Rip And Tear tab