Song name
# A B C D E F G H I J K L M N O P Q R S T U V W X Y Z

Sham 69 - Asbo Sports Day tab

-----------------------------------|
--44--xx4242--777--9999------------|
--44--xx4242--777--9999------------|
--44--xx4242--777--9999------------|
--22--xx2222--555--7777------------|
-----------------------------------| x4

-----------------------------------|
-----------------------------------|
-----------------------------------|
-----------------------------------|
--22--02020--555-7777--------------|
-----------------------------------| x4

-----------------------------------|
--xx4--x4--x4--xx777--9999---------|
--xx4--x4--x4--xx777--9999---------|
--xx4--x4--x4--xx777--9999---------|
--xx2--x2--x2--xx555--7777---------|
-----------------------------------| x4

these repeats practically all the song
Tap to rate this tab
# A B C D E F G H I J K L M N O P Q R S T U V W X Y Z