Song name
# A B C D E F G H I J K L M N O P Q R S T U V W X Y Z

Sham 69 - Hey Little Rich Boy tab

-------------------------------------------------------------------------
			     Hey little rich boy - Sham 69
-------------------------------------------------------------------------

Email: degot@bk.ru
Tuning: Standart


Intro
e|-----------------------------------------------------------------------|
B|------7---7----------9---------------7---7--------9999-----------------|
G|------7----7---------9-9-------------7----7-------9999-----------------|
D|------9--9--9--------9--9-(let_ring)-9--9--9------9999-----------------|
A|------9-9------------7---------------9-9----------7777-----------------|
E|------7------------------------------7---------------------------------|


Riff #1 (hey little rich boy)
e|----------5--333-33\5--------------------------------------------------|
B|------7x--5--333-33\5--------------------------------------------------|
G|------7x--6--444-44\6--------------------------------------------------|
D|------7x--7--555-55\7--------------------------------------------------|
A|------5x--7--555-55\7--------------------------------------------------|
E|----------5--333-33\5--------------------------------------------------|x4

\ - slide

Riff #2 (i dont need a flash car...)
e|-------------------------------|-------------5--55555555-55555555-----|
B|-------------------------------|-------------5--55555555-55555555-----|
G|-----------9-9-------7-7-------|---------9---6--66666666-66666666-----|
D|------9-9--9-9--7-7--7-7-------|-----9---9---7--77777777-77777777-----|
A|------9-9--7-7--7-7--5-5-------|-----9---7---7------------------------|
E|------7-7-------5-5------------|-----7-------5------------------------|

Then riff #1,
then riff #2,
then intro
then solo


Solo
e|-------------------------------|------------------7h10~----------------|
B|-------------------------------|-------------7h10----------------------|
G|----------------------7~-------|---------7h9---------------------------|
D|------------------7--9---------|-----7h9-------------------------------|
A|-------------7--10-------------|---------------------------------------|
E|------5h7--10------------------|---------------------------------------|

~ - little vibrato
h - hammer-on

Then riff #2,
then riff #1,
then riff #2,
ending is simillary as intro.
Tap to rate this tab
 
# A B C D E F G H I J K L M N O P Q R S T U V W X Y Z