Sham 69 - If The Kids Are United tab

----------------------------------------------------------------------------
		                 If the kind are united (solo part) - Sham 69
----------------------------------------------------------------------------

Email:degot@bk.ru

e|-----------------------------------------------------------55--------|
B|--------------------------------------5------5------5h8-5h7----------|
G|--------------7^^7^^7^^7^^7^^-5h7^--5-5------5---7^------------------|
D|-----------------------------------7---7-5h7--7-5--------------------|
A|---------------------------------------------------------------------|
E|---------------------------------------------------------------------|

e|--------------5-5-5--------------------------------------------------|
B|-------------------8-5---------5-------------------------------------|
G|-----------------------7^^7p5--55--5-----5-------5-7^^5--------------|
D|-----------------------------7--7-5h7-77-5-7-5h7-5----- 7~~----------|
A|--------------------------------------00---0-0-0---------------------|
E|---------------------------------------------------------------------|

h - hammer-on
p - pull-off
^^ - full bend
^ - 1\2 bend
~ - vibrato
Tap to rate this tab
 
# A B C D E F G H I J K L M N O P Q R S T U V W X Y Z