Song name
# A B C D E F G H I J K L M N O P Q R S T U V W X Y Z

Sham 69 - Asbo Sports Day tab

---------------------------------------------------------------------------|
			     Asbo sports day - Sham 69
---------------------------------------------------------------------------|

Tuning: Standart
Mail: degot@bk.ru

Intro
e|------------------------------------------------------------------------|
B|-----44x-4-4-----77--999------------------------------------------------|
G|-----44x-4-4-----77--999------------------------------------------------|
D|-----44x44444----77--999------------------------------------------------|
A|-----22x02020----55--777------------------------------------------------|
E|------------------------------------------------------------------------|x8

Main riff
e|------------------------------------------------------------------------|
B|-------4-4-4---77--999--------------------------------------------------|
G|-------4-4-4---77--999--------------------------------------------------|
D|-----xx4-4-4---77--999--------------------------------------------------|
A|-----xx2-2-2---55--777--------------------------------------------------|
E|------------------------------------------------------------------------|x4

Chorus
e|------------------------------------------------------------------------|
B|-----4-4------------4-4-------------------------------------------------|
G|-----4-4-4-2--------4-4-44-222------------------------------------------|
D|-----4-4-4-2--------4-4-44-222------------------------------------------|
A|-----2-2-4-2--------2-2-44-222------------------------------------------|
E|-----------2-0------------22-000----------------------------------------|x2

After chorus play the same thing as intro.
Then main riff,
then chorus,
then solo


Solo
e|-----77------------------------------------77---------------------------|
B|--\7-77-9-7---777--97--9^^-x97---7------\7-77-9-7---777--7-9^^-97--7----|
G|--------9-7-9-777--97--9^^-x97---7------------9-7---777--7-9^^-97--7----|
D|------------9--------9---------9---9--------------9-----9---------9-9^\-|
A|------------------------------------------------------------------------|
E|------------------------------------------------------------------------|

^^ - vibrato
\  - slide


Then intro,
then main riff,
then chorus x2


At the end there is also something like that

e|-----------7--7-7-7---9---9---7---7------------------------------------|
B|-----------7---7-7----7--7----5--5-5-----------------------------------|
G|-----------------------------------------------------------------------|
D|-----------------------------------------------------------------------|
A|-----------------------------------------------------------------------|
E|-----------------------------------------------------------------------|
Tap to rate this tab
 
# A B C D E F G H I J K L M N O P Q R S T U V W X Y Z