Song name
# A B C D E F G H I J K L M N O P Q R S T U V W X Y Z

Sham 69 - Hurry Up England tab

---------------------------------------------------------------------------|
			         Hurry Up England - Sham 69
---------------------------------------------------------------------------|

Tuning: Standart
Mail: degot@bk.ru

Intro
e|-----------------------------------------------------|
B|----77777777--7---7----------------------------------|
G|----77777777--7-7-7-7--------------------------------|
D|----77777777--7-7-7-7--------------------------------|
A|----55555555--5-7-5-7--------------------------------|
E|----------------5---5--------------------------------|x2

Riff #1
e|-----------------------------------------------------|
B|----x-77777777---------------------------------------|
G|----x-77777777--x-55555555-x-55555555-x-77777777-----|
D|----x-77777777--x-55555555-x-55555555-x-77777777-----|
A|----x-55555555--x-55555555-x-55555555-x-77777777-----|
E|----------------x-33333333-x-33333333-x-55555555-----|x2

Riff #2
e|-----------------------------------------------------|
B|----x-55555555-------------------------7---7---------|
G|----x-55555555--x-55555555-x-77777777--7-7-7-7-------|
D|----x-55555555--x-55555555-x-77777777--7-7-7-7-------|
A|----x-33333333--x-55555555-x-77777777--5-7-5-7-------|
E|----------------x-33333333-x-55555555----5---5-------|x2

Riff #3
e|-----------------------------------------------------|
B|----x-5555--------77777777---------------------------|
G|----x-5555--5555--77777777---------------------------|
D|----x-5555--5555--77777777---------------------------|
A|----x-3333--5555--55555555---------------------------|
E|------------3333-------------------------------------|x2

Riff #4
e|-----------------------------------------------------|
B|--------------55555555----------------------7---7----|
G|----33333333--55555555--55555555--77777777--7-7-7-7--|
D|----33333333--55555555--55555555--77777777--7-7-7-7--|
A|----33333333--33333333--55555555--77777777--5-7-5-7--|
E|----11111111------------33333333--55555555----5---5--|

Then riff #1,
then riff #2,
then riff #3,
then riff #4,

Then riff #1,
then riff #2,
then riff #3,
then riff #4! (Who could expect!? 0_o)

Then comes solo

Solo
e|-------------------------------------------------------------------------|
B|-------5------------------0------------------7777777---------------------|
G|----5h6-6------------7----9-------7----------9^^9^^9---------------------|
D|-----------7^^p5--------9-9----8h9-9-------------------------------------|
A|------------------77------------------7^^p5------------------------------|
E|-------------------------------------------------------------------------|

e|-------------------------------------------------------------------------|
B|-------5------------------0------------------7-----------7---7----7------|
G|----5h6-6------------7----9-------7----------7-----------7-7-7-7--7------|
D|-----------7^^p5--------9-9----8h9-9---------7-----------7-7-7-7--7------|
A|------------------77------------------7^^p5--5(let_ring)-5-7-5-7--5(l.r.)|
E|-----------------------------------------------------------5---5---------|

(Clapping hands)

Then riff #1,
then riff #2 x4 times

Outro
e|-----------------------------------------------------|
B|-----7x---7-----------7------------------------------|
G|-----7x-7-7-----------7------------------------------|
D|-----7x-7-7-----------7------------------------------|
A|-----5x-7-5(let_ring)-5------------------------------|
E|--------5--------------------------------------------|
Tap to rate this tab
 
# A B C D E F G H I J K L M N O P Q R S T U V W X Y Z