Song name
# A B C D E F G H I J K L M N O P Q R S T U V W X Y Z

Sham 69 - Give Me A Minute tab

Sham 69 - Give me a minute


Tuning: Standart
Mail: degot@bk.ru


Main riff
e|----------------------------------------|     e|----------------|
B|----------------------------------------|     B|----------------|
G|-------77-xx-55-xx----------------------|     G|----7-----------|
D|-------77-xx-55-xx-99-x-777-------------|     D|----7-----------|
A|-------55-xx-33-xx-99-x-777-------------|     A|----5(let_ring)-|
E|-------------------77-x-555-------------| x4  E|----------------|


Chorus (give me a minute...)
e|----------------------------------------------------------------|
B|----------------------------------------------------------------|
G|----------xx--555--777------------------------------------------|
D|-------7--xx--555--777------------------------------------------|
A|-------7--xx--333--555------------------------------------------|
E|-------5--------------------------------------------------------| x4


Then main riff,
then chorus,
then comes solo


+ - harmonic
^^ - full bend (e.g. 8+^^ - bend harmonic string)
^ - 1/2 bend
~ - vibrato
h - hammer-on
p - pull-off
\ - slide (e.g. 8\ - slide from 8 to nothing or zero)


Solo
e|------------------------------------------------------------8--8--8--8--8--------8--8-|
B|-------------------6------6-8^^8^^8^~-6h8-8+^^-6h8^^---8^^10-10-10-10--8-8--8^^10-10--|
G|-----5^^5^^5^^-5-5--7--5h7------------------------------------------------------------|
D|----------------7-7-------------------------------------------------------------------|
A|--------------------------------------------------------------------------------------|
E|--------------------------------------------------------------------------------------| 

e|----------8--8--8--------5---7~\--------------------------------|
B|-----8^^10-10-10-10p8\---6---8~\--------------------------------|
G|----------------------------------------------------------------|
D|----------------------------------------------------------------|
A|----------------------------------------------------------------|
E|----------------------------------------------------------------| 


Then chorus,
then main riff,
then chorus x2 (x8 total)


End with
e|----------------|
B|----------------|
G|----7-----------|
D|----7-----------|
A|----5(let_ring)-|
E|----------------|
Tap to rate this tab
 
# A B C D E F G H I J K L M N O P Q R S T U V W X Y Z