Song name
# A B C D E F G H I J K L M N O P Q R S T U V W X Y Z

Sham 69 - Hersham Boys tab

Sham 69 - Hersham Boys

e:--------------|--------------|--------------|--------------|
b:--------------|--------------|--------------|--------------|
g:--------------|--------------|----------9-9-|--------------|
d:----------9---|----------4-4-|--6-9-----9-9-|----------9---|
a:--6-9-----9---|--1-4-----4-4-|7-----7---7-7-|--6-9-----9---|
e:7-----7---7---|2-----2---2-2-|--------------|7-----7---7---|

e:----------------|----------------|
b:----------------|----------------|
g:----------------|----------------| 
d:8/9-9-9-8/9-9-9-|8/9-9-9-9-9-9-9-|4x
d:8/9-9-9-8/9-9-9-|8/9-9-9-9-9-9-9-|
a:6/7-7-7-6/7-7-7-|6/7-7-7-7-7-7-7-|


Verse (all powerchords, if not mentioned differently than play the chord 1 bar)
B               A
Living each day outside the law 
B                A
Trying not to do what we did before 
G                 A
Country slag with the Bow Bell voice
G                    F# (2 bars) 
So close to the city we ain't got much choice 

B                  A
Council estates or tower blocks 
B                 A
Wherever you live you get the knocks 
G                   A
But the people round here they are so nice 
G                  F# (2 bars)
Stop being naughty take our advice 


Chorus
B       F#    E       F#
Hersham boys, Hersham boys 
B       E         F#(high) B
Lace up boots and corduroys 
B       F#    E       F#
Hersham boys, Hersham boys 
B       E       F#(high)   B
They call us the Cockney cowboys 

Verse (same as before)
It's down to the hop for the local girls 
The're not beauty queens but they're our pearls 
But when you go to bed tonight 
Don't worry about us, we're alright 

Chorus (same as before)
Hersham boys, Hersham boys 
Lace up boots and corduroys
Hersham boys, Hersham boys 
They call us the Cockney cowboys 


Bridge (with unknown lyrics)
e:------------------------|------------------------|
b:------------------------|------------------------|
g:------------------------|------------------------|
d:13-13-13-13-13-13-13-13-|14-14-14-14-14-14-14-14-|
a:13-13-13-13-13-13-13-13-|14-14-14-14-14-14-14-14-|
e:11-11-11-11-11-11-11-11-|12-12-12-12-12-12-12-12-| 

e:------------------------|------------------------|
b:------------------------|------------------------|
g:16-16-16-16-16-16-16-16-|------------------------|
d:16-16-16-16-16-16-16-16-|16-------16----16-16-16-|
a:14-14-14-14-14-14-14-14-|16-------16----16-16-16-|
e:------------------------|14-------14----14-14-14-|            

e:------------------------|------------------------|
b:------------------------|------------------------|
g:------------------------|------------------------|
d:13-13-13-13-13-13-13-13-|14-14-14-14-14-14-14-14-|
a:13-13-13-13-13-13-13-13-|14-14-14-14-14-14-14-14-|
e:11-11-11-11-11-11-11-11-|12-12-12-12-12-12-12-12-| 

e:------------------------|------------------------|
b:------------------------|------------------------|
g:16-16-16-16-16-16-16-16-|------------------------|
d:16-16-16-16-16-16-16-16-|16-------16----16-16-16-|
a:14-14-14-14-14-14-14-14-|16-------16----16-16-16-|
e:------------------------|14-------14----14-14-14-|   

e:------------------------|
b:------------------------|
g:------------------------|
d:16-16-14-14-13-13-11-11-|
a:16-16-14-14-13-13-11-11-|
e:14-14-12-12-11-11-09-09-|


Chorus

Country Interlude (I think itīs just B - E - F# - F#)

end in diverse Choruses in E - F# - E - F# - E - F# - B
Tap to rate this tab
 
# A B C D E F G H I J K L M N O P Q R S T U V W X Y Z