Song name
# A B C D E F G H I J K L M N O P Q R S T U V W X Y Z

Sham 69 - Unite And Win tab

Sham 69 - Unite and win

Tuning: Standart
Mail: degot@bk.ru

p - pull-off
^ - little bend

Intro
e|----7-7-7-8-8-8p7-7-7-7-8-8-7------5-5-5-3-3-3p2-2-2-2-3-3p2---|
B|----8-8-8-8-8-8-8-8-8-8-8-8-8------3-3-3-3-3-3-3-3-3-3-3-3-3---|
G|---------------------------------------------------------------|
D|---------------------------------------------------------------|
A|---------------------------------------------------------------|
E|---------------------------------------------------------------| x2


Main riff
e|-----------------5-5-5-3-3-3p2-2-2-2-3-3p2---------------------|
B|-----------------3-3-3-3-3-3-3-3-3-3-3-3-3---------------------|
G|---------------------------------------------------------------|
D|----5-55-5-555-------------------------------------------------|
A|----5-55-5-555-------------------------------------------------|
E|----3-33-3-333-------------------------------------------------| x4


Pre-chorus (let ring all chords here)
e|--------------------------------------|          |-----------|
B|--------------------------------------|          |-----------|
G|----------------7-----7---------------|          |--9-----9--|
D|----7-----7-----7-----7---------------|          |--9-----9--|      
A|----7-----7-----5-----5---------------|          |--7-----7--|
E|----5-----5---------------------------| x2, then |-----------| x1


Chorus
e|------------------------------------------------|         
B|------------------------------------------------|        
G|---------------77777777---5-4-2-----------------|       
D|----55555555---77777777---5-4-2--55555555-------|        
A|----55555555---55555555---3-2-0--55555555-------|         
E|----33333333---------------------33333333-------| x4,

at 4th time play
e|---------------|         
B|---------------|        
G|---------------|       
D|----------7^---|        
A|---3-2-0--7^---|         
E|----------5^---|

Aslo there is a synthesizer  on a background, 
it can be substituted with this...
(G - string):
G|---12-14--12-14--12-14--12-14---| etc. 



Then main riff,
then pre-chorus,
then chorus,
then solo

8(10) - bend string 8 to 10
p - pull-off
+ - harmonic note
^ - aslo bending
~ - vibrato


Solo
e|----8(10)--8(10)-8-5-----------------------------------------|
B|--------------------8-5------5-7-----------------------------|
G|-----------------------7-5---5-7-----------------------------|
D|--------------------------7-------7-6-5--------7+^-----------|
A|---------------------------------------8-5-------------------|
E|-------------------------------------------------------------|


e|--------------------------------------5------------7~~-------|
B|---------55--5--5-------------------------5--5--5--8^~-------|
G|---------55--5--5--7p5-7p5-7p5-7p5--7-----5--5--5------------|
D|-----5-7----7--7-------------------------7--7--7-------------|
A|----8--------------------------------------------------------|
E|-------------------------------------------------------------|


Then pre-chorus,
then chorus x2 (2nd time faded).

That's All Folks!
Tap to rate this tab
 
# A B C D E F G H I J K L M N O P Q R S T U V W X Y Z