Song name
# A B C D E F G H I J K L M N O P Q R S T U V W X Y Z

Sham 69 - Ulster tab

ULSTER
Sham 69


Intro/Verse
e:---------------------|----------------|
B:---------------------|----------------|
G:---------------------|7-7-7-7-9-9-9-9-|
D:-7-7-7-7-10-10-10-10-|7-7-7-7-9-9-9-9-|
A:-7-7-7-7-10-10-10-10-|5-5-5-5-7-7-7-7-|
E:-5-5-5-5- 8- 8- 8- 8-|----------------|

e:---------------------|----------------|
B:---------------------|----------------|
G:---------------------|7-7-7-7---------|
D:-7-7-7-7-10-10-10-10-|7-7-7-7-7-7-7-7-|
A:-7-7-7-7-10-10-10-10-|5-5-5-5-7-7-7-7-|
E:-5-5-5-5- 8- 8- 8- 8-|--------5-5-5-5-|

Chorus
e:-----------------------|
B:-----------------------|
G:-----------------------|
D:-5---5---5---5---3---4-|
A:-5---5---5---5---3---4-|
E:-3---3---3---3---1---2-|


Ulster boy
You know it's gonna last a few more years
So when you throw them bricks
Don't you cry no tears
And when you see those tanks go past
You hide your bomb and you run from the blast
Ulster
There ain't no winners
And now you're lyin' in your hospital bed
You can still hear the bullets rushing past your head
No more fun for you ain't no more
You've ended like the rest and now you're dead
Tap to rate this tab
# A B C D E F G H I J K L M N O P Q R S T U V W X Y Z