Guitaretab - guitar tabs
Song name
# A B C D E F G H I J K L M N O P Q R S T U V W X Y Z

Sham 69 - Borstal Breakout tab

-------------------------------------------------------------------------------
			  BORSTAL BREAKOUT - Sham 69
-------------------------------------------------------------------------------

By: WBinder007@aol.com 
"."=Palm Mute

INTRO:
e|---------------------------------------------------------------------------|
B|---------------------------------------------------------------------------|
G|----------------------9--9-9-----------------------------------------------|
D|-8/9-9--8/9-9--8/9-9--9--9-9-----------------------------------------------|
A|-8/9-9--8/9-9--8/9-9--7--7-7-----------------------------------------------|
E|-6/7-7--6/7-7--6/7-7-------------------------------------------------------|

VERSE:
e|---------------------------------------------------------------------------|
B|---------------------------------------------------------------------------|
G|---------------------------------------------------------------------------|
D|-9-9-9-9--9-9-9-9--9-9-9-9--9-9-9-9---8/9-9--8/9-9--8/9-9--8/9-9-----------|
A|-9-9-9-9--9-9-9-9--9-9-9-9--9-9-9-9---8/9-9--8/9-9--8/9-9--8/9-9-----------|
E|-7-7-7-7--7-7-7-7--7-7-7-7--7-7-7-7---6/7-7--6/7-7--6/7-7--6/7-7-----------|
   . . . .  . . . .  . . . .  . . . . 
e|---------------------------------------------------------------------------|
B|---------------------------------------------------------------------------|
G|-9-9-9-9--9-9-9-9--9-9-9-9--9-9-9-9----------------------------------------|
D|-9-9-9-9--9-9-9-9--9-9-9-9--9-9-9-9---8/9-9--8/9-9--8/9-9--8/9-9-----------|
A|-7-7-7-7--7-7-7-7--7-7-7-7--7-7-7-7---8/9-9--8/9-9--8/9-9--8/9-9-----------|
E|--------------------------------------6/7-7--6/7-7--6/7-7--6/7-7-----------|
   . . . .  . . . .  . . . .  . . . .
e|---------------------------------------------------------------------------|
B|---------------------------------------------------------------------------|
G|-11-11-11-11--11-11-11-11--9-9-9-9--9-9-9-9------------------------9--9-9--|
D|-11-11-11-11--11-11-11-11--9-9-9-9--9-9-9-9---8/9-9--8/9-9--8/9-9--9--9-9--|
A|--9--9--9--9---9--9--9--9--7-7-7-7--7-7-7-7---8/9-9--8/9-9--8/9-9--7--7-7--|
E|----------------------------------------------6/7-7--6/7-7--6/7-7----------|
[ Tab from: http://www.guitaretab.com/s/sham-69/64573.html ]
CHORUS:
e|---------------------------------------------------------------------------|
B|---------------------------------------------------------------------------|
G|----------------------7--9-------------------------------------------------|
D|-8/9-9--8/9-9--8/9-9--7--9-------------------------------------------------|
A|-8/9-9--8/9-9--8/9-9--5--7-------------------------------------------------|
E|-6/7-7--6/7-7--6/7-7-------------------------------------------------------|

BRIDGE:
e|---------------------------------------------------------------------------|
B|---------------------------------------------------------------------------|
G|---------------------------------------------------------------------------|
D|-9-X-X-X-X-X-X---9-X-X-X-X-X-X---9-X-X-X-X-X-X---9-X-X-X-X-X-X-------------|
A|-9-X-X-X-X-X-X---9-X-X-X-X-X-X---9-X-X-X-X-X-X---9-X-X-X-X-X-X-------------|
E|-7-X-X-X-X-X-X---7-X-X-X-X-X-X---7-X-X-X-X-X-X---7-X-X-X-X-X-X-------------|

e|---------------------------------------------------------------------------|
B|---------------------------------------------------------------------------|
G|-9-X-X-X-X-X-X---9-X-X-X-X-X-X---------------------------------------------|
D|-9-X-X-X-X-X-X---9-X-X-X-X-X-X---9-X-X-X-X-X-X---9-X-X-X-X-X-X-------------|
A|-7-X-X-X-X-X-X---7-X-X-X-X-X-X---9-X-X-X-X-X-X---9-X-X-X-X-X-X-------------|
E|---------------------------------7-X-X-X-X-X-X---7-X-X-X-X-X-X-------------|

e|---------------------------------------------------------------------------|
B|---------------------------------------------------------------------------|
G|-11-X-X-X-X-X-X---9-X-X-X-X-X-X------------------------9--9-9--------------|
D|-11-X-X-X-X-X-X---9-X-X-X-X-X-X---8/9-9--8/9-9--8/9-9--9--9-9--------------|
A|--9-X-X-X-X-X-X---7-X-X-X-X-X-X---8/9-9--8/9-9--8/9-9--7--7-7--------------|
E|----------------------------------6/7-7--6/7-7--6/7-7----------------------|

/-----------\
|STRUCTURE: |
|-----------|
|INTRO    X2|
|-----------|
|VERSE    X1|
|-----------|
|CHORUS   X4|
|-----------|
|INTRO    X2|
|-----------|
|VERSE    X1|
|-----------|
|CHORUS   X4|
|-----------|
|INTRO    X2|
|-----------|
|BRIDGE   X1|
|-----------|
|CHORUS   X4|
|-----------|
|INTRO    X2|
|-----------|
|VERSE    X1|
|-----------|
|CHORUS   X4|
\-----------/

===============================================================================
Related for Borstal Breakout tab
Advertisement will be closed in 10 seconds