Guitaretab - guitar tabs
Song name
# A B C D E F G H I J K L M N O P Q R S T U V W X Y Z

Sham 69 - Action Time Vision tab

Song: Action time vision
Album: MCD Action time vision
Artist: Sham 69
Transcribed by: tituzz2     -VValter-
Mail: walter_20xx@hotmail.com


Note: pm  -> palm mute
      /   -> slide


Intro / Chorus:
                         pmpm    pmpm    pmpm    pmpm
|-----------------------------------------------------|
|-----------------------------------------------------|
|-----------5-5-5-5-5---------------------------------|
|-6-6-6-6-6-5-5-5-5-5-3-3-3-3-3-3-3-3-3-3-3-3-3-3-3-3-|
|-6-6-6-6-6-3-3-3-3-3-3-3-3-3-3-3-3-3-3-3-3-3-3-3-3-3-|
|-4-4-4-4-4-----------1-1-1-1-1-1-1-1-1-1-1-1-1-1-1-1-|

Verse:
     pmpmpmpmpm    pmpmpmpmpm    pmpmpmpmpm
|-------------------------------------------|
|-------------------------------------------|
|-------------------------------------------|
|-3-3-3-3-3-3-3-3-3-3-3-3-3-3-3-3-3-3-3-3-3-|
|-3-3-3-3-3-3-3-3-3-3-3-3-3-3-3-3-3-3-3-3-3-|
|-1-1-1-1-1-1-1-1-1-1-1-1-1-1-1-1-1-1-1-1-1-|
[ Tab from: http://www.guitaretab.com/s/sham-69/91695.html ]
     pmpmpmpmpm    pmpmpmpmpm    pmpmpmpmpm
|-----------------------------------------------------------|
|-----------------------------------------------------------|
|-----------------------------------------------------------|
|-3-3-3-3-3-3-3-3-3-3-3-3-3-3-3-3-3-3-3-3-3-3-3-3-3-3-3-3-3-|
|-3-3-3-3-3-3-3-3-3-3-3-3-3-3-3-3-3-3-3-3-3-3-3-3-3-3-3-3-3-|
|-1-1-1-1-1-1-1-1-1-1-1-1-1-1-1-1-1-1-1-1-1-1-1-1-1-1-1-1-1-|

Last Chorus:

|-------------------------------------|
|-------------------------------------|
|-----------5-5-5-5-5-----------------|
|-6-6-6-6-6-5-5-5-5-5-3~~~~~~~--------|
|-6-6-6-6-6-3-3-3-3-3-3~~~~~~~~~------|
|-4-4-4-4-4-----------1~~~~~~~~~~~1/9-|


GUITAR1	  GUITAR2
Intro
Chorus                              Isabel
Chorus                                  te amo!! dorogaya!!
Verse
Chorus
Chorus
Verse
Chorus
Chorus
Verse        Solo¿¿
Chorus
Chorus
Verse
Chorus
Chorus
Last Chorus

i don´t know the solo so… that's all .. any questions, doubts or whatever...
write me -> walter_20xx@hotmail.com

THE END
Related for Action Time Vision tab