Song name
# A B C D E F G H I J K L M N O P Q R S T U V W X Y Z

Sham Rain - Holding The Earth tab

OK, this has not been the easiest song to figure out.

The intro chords are probably not exactly these and the verse parts are also missing a bit.
It is very hard to hear what is being played during the verses.

If you do figure out the missing pieces, don't just vote a bad rating, but also
post your corrections. Thanks!


Intro chords:
E---------------------------------------------------------------------------|
B---------------------------------------------------------------------------|
G-----3-3-6-6-3-----5-5-8-8-5-----10-10-13-13-10-----10-10-12-12-10---------|
D-----3-3-6-6-3-----5-5-8-8-5-----10-10-13-13-10-----10-10-12-12-10---------|
A-----1-1-4-4-1-----3-3-6-6-3------8--8-11-11--8------8--8-10-10--8---------|
E---------------------------------------------------------------------------|
        (x 2)	      (x 2)


Intro melody:
E---------------------------------------------------------------------------|
B---------------------------------------------------------------------------|
G------10-3/5-----13-13-12-12/8/10/15-15-13-12-----13-12-10-----10-8-6------|
D---------------------------------------------------------------------------|
A---------------------------------------------------------------------------|
E---------------------------------------------------------------------------|


Verse:
E---------------------------------------------------------------------------|
B---------------------------------------------------------------------------|
G---------------------------------------------------------------------------|
D---------10-10-8-----------------------10-10--8-10-------------------------|
A-----8-8----------10-11-10---------8-8-------------10----------------------|
E------------------------------------------------------11-------------------|

E---------------------------------------------------------------------------|
B---------------------------------------------------------------------------|
G---------------------------------------------------------------------------|
D---------10-10-8--10-11-10-------------10-10-8--10-11-10-------------------|
A-----8-8---------------------------8-8-------------------------------------|
E---------------------------------------------------------------------------|


Bridge:
E--------------------------------------------------------|
B--------------------------------------------------------|
G--------------------------------------------------------|
D-------8-8---------6-6-----------5-5------------6-6-5---|
A---8-8---------6-6-----------5-5------------5-5---------|
E--------------------------------------------------------|


Pre-chorus:
E-------------------------------------------------------------------------|
B-------------------------------------------------------------------------|
G--------------------------------------10---------------------------------|
D-------------8---------------------------8-------------------10----------|
A-----8-10-11---11-10----------8-10-11------11----------10-11----11-8-----|
E-------------------------------------------------------------------------|


Chorus (tremolo picking):
E---------------------------------------------------------------------------|
B---------------------------------------------------------------------------|
G----------------------12---------------------------------------------------|
D-----3-15-13-12----12----15-13-12------------------------------------------|
A----------------14----------------15---------------------------------------|
E---------------------------------------------------------------------------|


Outro solo:
E---------------------------------------------------------------------------|
B---------------------------------------------------------------------------|
G--------------15-----------------------------------------------------------|
D-----17s13-15----18-17-----18-17-17----------------------------------------|
A---------------------------------------------------------------------------|
E---------------------------------------------------------------------------|

E---------------------------------------------------------------------------|
B---------------------------------------------------------------------------|
G--------------15-17----15-15-15-------------------15-15--------------------|
D-----17s13-15-------18----------18-18-17-17-17-17-------17-17-17-17-17-----|
A---------------------------------------------------------------------------|
E---------------------------------------------------------------------------|

E---------------------------------------------------------------------------|
B---------------------------------------------------------------------------|
G--------------15-----------------------------------------------------------|
D-----17s13-15----18-17---17-18-18------------------------------------------|
A---------------------------------------------------------------------------|
E---------------------------------------------------------------------------|

E---------------------------------------------------------------------------|
B--13-15-15-15---16-15---16-16-16-15-15-13-13-13-13-13----------------------|
G------------------------------------------------------15-15-15-13-13-13-12-|
D---------------------------------------------------------------------------|
A---------------------------------------------------------------------------|
E---------------------------------------------------------------------------|
Tap to rate this tab
 
# A B C D E F G H I J K L M N O P Q R S T U V W X Y Z