Song name
# A B C D E F G H I J K L M N O P Q R S T U V W X Y Z

Sham Rain - Black November tab

Intro chords:
Am F


Intro melody (clean):
E--------------------------------------------0--------------|
B--------------1--------------------------------------------|
G--------2---2---2---2-----------------2---2---2---2--------|
D----------2-------2---------------------2-------2----------|
A-----------------------------------------------------------|
E-----------------------------------------------------------|

E-----------------------------------------------------------|
B--------------1-----------------------------1--------------|
G--------2---2---2---2-----------------2---2---2---2--------|
D----------2-------2---------------------2-------2----------|
A-----------------------------------------------------------|
E-----------------------------------------------------------|


Chorus chords:
Am F
(the last time song ends with Am)


Bridge:
Am Em


Solo (distorted):
E--------------------------------------------------------|
B--------------------------------------------------------|
G------4/5---4/5/4-2---2-4-5-7-5-4--5-4-0--0-2-2-2-------|
D--------------------------------------------------------|
A--------------------------------------------------------|
E--------------------------------------------------------|
	(x 2), then end solo with:
E-----------------------|
B-----------------------|
G------4-4-5-5-5-5------|
D-----------------------|
A-----------------------|
E-----------------------|
Tap to rate this tab
 
# A B C D E F G H I J K L M N O P Q R S T U V W X Y Z