Song name
# A B C D E F G H I J K L M N O P Q R S T U V W X Y Z

Sham Rain - Stars Will Fall tab

Intro (acoustic):
Em C Am


Keyboard melody transition to guitar:
E---7-----------5-0-------|
B-----7-8-5---------7-5---|
G-------------------------|
D-------------------------|
A-------------------------|
E-------------------------|


Chorus:
C G Em


Solo and background (distorted):
E-----------------------------------------------------------|
B-----------------------------------3-5-5---5p0-0---3/5-5---|
G-----------------------4/2-2p0---4-------------------------|
D---5/4-4/2---5/4-4/2---------------------------------------|
A-----------------------------------------------------------|
E-----------------------------------------------------------|

E----------------------------|
B---5p0---0------------------|
G--------------4/2-2p0h2-----|
D----------------------------|
A----------------------------|
E----------------------------|


Outro (acoustic):
C G Em

Outro (distorted):
E-----------------------|
B-----------------------|
G---------------4-------|
D---5---5-4---------2---|
A-----------------------|
E-----------------------|
Tap to rate this tab
 
# A B C D E F G H I J K L M N O P Q R S T U V W X Y Z