Sham Rain - Silent Lullaby tab

-------------------------------------------------------------------------------
                            SILENT LULLABY - ShamRain
-------------------------------------------------------------------------------

Tuning: Standard


Intro & main melody:
e|---------------------------------------|
B|-------1---0-1---------3-0-----0---0---|
G|---------------2-----------2-5---2-----|
D|-----2---2-------2---------------------|
A|---0-----------------------------------|
E|---------------------------------------|
       (Am)    (Am)

e|---------------1-----------7---------5---------|
B|-------3---------3---3-------6---------6---8---|
G|-----2---2---------2-----------7---------7-----|
D|---0-------------------------------------------|
A|-----------------------------------------------|
E|-----------------------------------------------|
                  (Dm)



Intro chords (for acoustic playing):
Am Dm



Pre-chorus (for acoustic playing):
E Dm Am C Em Am



Verse background:
e|---------------|
B|---------------|
G|---------------|
D|---5---3---2---|
A|---------------|
E|---------------|



************************************

| /   slide up
| \   slide down
| h   hammer-on
| p   pull-off
| ~   vibrato
| +   harmonic
| x   Mute note
| b   Bend
| br  Bend release

************************************
Tap to rate this tab
 
# A B C D E F G H I J K L M N O P Q R S T U V W X Y Z