Song name
# A B C D E F G H I J K L M N O P Q R S T U V W X Y Z

Shaman - Fairy Tale tab

E||--------------0--------|----------------------|-------0---3-5---3-0---|
B||------0-1---3---3---1-0|----------------------|-1---3---------0-------|
G||--2-------0-------0----|-2-------2-----2-----2|---------0-------------|
D||----2------------------|-------2------2-----2-|---2-------------------|
A||--0---2-3-------5------|-0---3-----0-3---0-3--|-0---2-3-----------0---|
E||-----------------------|----------------------|-------------5---------|


--0----0----0--------|-------------------------|
-1----1----1--3---1-0|-1-0-----------1---------|
2----2----2----------|-----2-4-2-0-2---2-------|
--------------0-4----|-------------------------|
----0----0-----------|-0-----0-----0--(0)------|
---------------------|-------------------------|
Tap to rate this tab
 
# A B C D E F G H I J K L M N O P Q R S T U V W X Y Z