Song name
# A B C D E F G H I J K L M N O P Q R S T U V W X Y Z

Shamans Harvest - Dragonfly tab

Dragonfly
Shaman's Harvest


Tabbed by defenestrator38
First tab, love the song and people were asking for it.

1/2 Step down, Drop-D (C# G# C# F A# D#)

/  = slide
^  = pulloff
~  = hold vibrato

Verse 1
(Guit 1 - acoustic)

   1  &  2  &  3  &  4  &  1  &  2  &  3  &  4  &
e|--------------------------------------------------|
B|--------------------------------------------------|
G|--------------------------------------------------|  Pattern 1, 
D|----0-----0-----0-----0-----0-----0-----0-----0---|  used also in Chorus.
A|--------------------------------------------------|
E|-0-----0-----0-----0-----0-----0-----0-----0------|

   1  &  2  &  3  &  4  &  1  &  2  &  3  &  4  &
e|--------------------------------------------------|
B|--------------------------------------------------|
G|--------------------------------------------------|
D|----0-----0-----0-----0-----0-----0-----0-----0---| 
A|--------------------------------------------------|
E|-0-----0-----0-----0-----0-----0-----0-----0------|

    Maybe the sky's falling down around the babies.
   1  &  2  &  3  &  4  &  1  &  2  &  3  &  4  &
e|--------------------------------------------------|
B|--------------------------------------------------|
G|--------------------------------------------------|
D|----0-----0-----0-----0-----0-----0-----0-----0---| 
A|--------------------------------------------------|
E|-0-----0-----0-----0-----0-----0-----0-----0------|

      Maybe the world is going to spin out of con-
   1  &  2  &  3  &  4  &  1  &  2  &  3  &  4  &
e|--------------------------------------------------|
B|--------------------------------------------------|
G|--------------------------------------------------|
D|----0-----0-----0-----0-----0-----0-----0-----0---| 
A|--------------------------------------------------|
E|-0-----0-----0-----0-----0-----0-----0-----0------|


   -trol.                    I don't carrrrre any-
   1  &  2  &  3  &  4  &  1  &  2  &  3  &  4  &
e|--------------------------------------------------|
B|--------------------------------------------------|
G|--------------------------------------------------|
D|----------------------------0-----0-----0-----0---|
A|----7-----7-----7-----7---------------------------|
E|-10----10----10----10----5----5/7----3----3/5-----|

   more.
   1  &  2  &  3  &  4  &  1  &  2  &  3  &  4  &
e|--------------------------------------------------|
B|--------------------------------------------------|
G|--------------------------------------------------|
D|----0-----0-----0-----0-----0-----0-----0-----0---| 
A|--------------------------------------------------|
E|-0-----0-----0-----0-----0-----0-----0-----0------|

   What if I quit today working for the man?
   1  &  2  &  3  &  4  &  1  &  2  &  3  &  4  &
e|--------------------------------------------------|
B|--------------------------------------------------|  2nd guitar part is 
G|--------------------------------------------------|  easy, just noodle in 
D|----0-----0-----0-----0-----0-----0-----0-----0---|  the scale a bit.
A|--------------------------------------------------|
E|-0-----0-----0-----0-----0-----0-----0-----3------|


      Who said I had enough,      well maybe I 
   1  &  2  &  3  &  4  &  1  &  2  &  3  &  4  &
e|--------------------------------------------------|
B|--------------------------------------------------|
G|--------------------------------------------------|
D|----0-----0-----0-----0-----0-----0-----0-----0---| 
A|--------------------------------------------------|
E|-0-----0-----0-----0-----0-----0-----0-----0------|


   can.                    It's alllll gonna ennnnd
   1  &  2  &  3  &  4  &  1  &  2  &  3  &  4  &
e|--------------------------------------------------|
B|--------------------------------------------------|
G|--------------------------------------------------|
D|----------------------------0-----0-----0-----0---|
A|----7-----7-----7-----7---------------------------|
E|-10----10----10----10----5----5/7----3----3/5-----|

    anyway.                            Tell me
   1  &  2  &  3  &  4  &  1  &  2  &  3  &  4  &
e|--------------------------------------------------|
B|--------------------------------------------------|
G|--------------------------------------------------|
D|----0-----0-----0-----0-----0-----0-----0-----0---| 
A|--------------------------------------------------|
E|-0-----0-----0-----0-----0-----0-----0-----0------|


    doctor, what's the cure, for the wicked man's
   1  &  2  &  3  &  4  &  1  &  2  &  3  &  4  &
e|--------------------------------------------------|
B|--------------------------------------------------|
G|--------------------------------------------------|
D|----------------------------0-----0-----0-----0---|
A|----7-----7-----7-----7---------------------------|
E|-10----10----10----10----5----5/7----3----3/5-----|

   bluuuuuuuuuuuuuuuuuuuuuuuuuuuuuuuuuuuuuuuuues?
   1  &  2  &  3  &  4  &  1  &  2  &  3  &  4  &
e|--------------------------------------------------|
B|--------------------------------------------------|
G|--------------------------------------------------|
D|----0-----0-----0-----0-----0-----0-----0-----0---| 
A|--------------------------------------------------|
E|-0-----0-----0-----0-----0-----0-----0-----0------|


Chorus (Pattern 1 plays underneath)
(Guit 2 - dist elec) All tab from here is Guit 2

               Flyyyyyy,   draggggggonnnnn-
   1  &  2  &  3  &  4  &  1  &  2  &  3  &  4  &
e|--------------------------------------------------|
B|--------------------------------------------------|
G|--------------------------------------------------|  Pattern 2
D|-0--0--------------0--0---------------------------|
A|-0--0--------------0--0---------------------------|
E|-0--0--------------0--0---------------------------|

   fly         Flyyyyyy,   draggggggonnnnn-
   1  &  2  &  3  &  4  &  1  &  2  &  3  &  4  &
e|--------------------------------------------------|
B|--------------------------------------------------|
G|--------------------------------------------------|  
D|-0--0--------------0--0---------------------------|
A|-0--0--------------0--0---------------------------|
E|-0--0--------------0--0---------------------------|

               Flyyyyyy,   draggggggonnnnn-
   1  &  2  &  3  &  4  &  1  &  2  &  3  &  4  &
e|--------------------------------------------------|
B|--------------------------------------------------|
G|--------------------------------------------------|  
D|-0--0--------------0--0---------------------------|
A|-0--0--------------0--0---------------------------|
E|-0--0--------------0--0---------------------------|

   fly         Flyyyyyy,   drag...     When  the 
   1  &  2  &  3  &  4  &  1  &  2  &  3  &  4  &
e|--------------------------------------------------|
B|--------------------------------------------------|
G|--------------------------------------------------|  
D|-0--0--------------0--0--------------5------------|
A|-0--0--------------0--0--------------5------------|
E|-0--0--------------0--0--------------5------------|


   sky.                           falls   to  the
   1  &  2  &  3  &  4  &  1  &  2  &  3  &  4  &
e|--------------------------------------------------|
B|--------------------------------------------------|
G|--------------------------------------------------|  
D|-0--0--------------0--0---------------------------|
A|-0--0--------------0--0---------------------------|
E|-0--0--------------0--0---------------------------|

   sea.                          I    won't
   1  &  2  &  3  &  4  &  1  &  2  &  3  &  4  &
e|--------------------------------------------------|
B|--------------------------------------------------|
G|--------------------------------------------------|  
D|-0--0--------------0--0---------------------------|
A|-0--0--------------0--0---------------------------|
E|-0--0--------------0--0---------------------------|

   mind.                         The  calls  in
   1  &  2  &  3  &  4  &  1  &  2  &  3  &  4  &
e|--------------------------------------------------|
B|--------------------------------------------------|
G|--------------------------------------------------|  
D|-0--0--------------0--0---------------------------|
A|-0--0--------------0--0---------------------------|
E|-0--0--------------0--0---------------------------|

   meeeeeee.                           When  the
   1  &  2  &  3  &  4  &  1  &  2  &  3  &  4  &
e|--------------------------------------------------|
B|--------------------------------------------------|
G|----------------------------------------12~~~-----|  
D|-0--0--------------0--0--------------0--10~~~-----|
A|-0--0--------------0--0--------------0--10~~~-----|
E|-0--0--------------0--0--------------0--10~~~-----|

   
   wiiiind                    Burns  through the
   1  &  2  &  3  &  4  &  1  &  2  &  3  &  4  &
e|--------------------------------------------------|
B|--------------------------------------------------|
G|-------14-----------------------------------------|  (fake the bass 
D|-0--0--15----------------------3--0---------------|   on the acoustic)
A|-0--0--12----------------------------------3--5---|
E|-0--0--12----------------0-----------5//7---------|

   treeeees,                     I    want   to 
   1  &  2  &  3  &  4  &  1  &  2  &  3  &  4  &
e|--------------------------------------------------|
B|--------------------------------------------------|
G|-------14-----------------------------------------|  
D|-0--0--15----------------------3--0--------3------|
A|-0--0--12----------------------------------3------|
E|-0--0--12----------------0-----------5//7--3------|

   riiiide                       my        dragon-
   1  &  2  &  3  &  4  &  1  &  2  &  3  &  4  &
e|--------------------------------------------------|
B|--------------------------------------------------|
G|-------14-----------------------------------------|  
D|-0--0--15----------------------5--3---------------|
A|-0--0--12----------------------------5-----8--7---|
E|-0--0--12----------------0------------------------|

   fly.        Flyyy       draaaaaaggggoooonnn
   1  &  2  &  3  &  4  &  1  &  2  &  3  &  4  &
e|--------------------------------------------------|
B|--------------------------------------------------|
G|-10----10----10----10-10-12----12----------12-----|  
D|-8-----8-----8-----8--8--10----10----------10-----|
A|-8-----8-----8-----8--8--10----10----------10-----|
E|-8-----8-----8-----8--8--10----10----------10-----|


   fly.        Flyyy       draaaaaaggggoooonnn
   1  &  2  &  3  &  4  &  1  &  2  &  3  &  4  &
e|--------------------------------------------------|
B|--------------------------------------------------|
G|-10----10----10----10-10-12----12----------12-----|  
D|-8-----8-----8-----8--8--10----10----------10-----|
A|-8-----8-----8-----8--8--10----10----------10-----|
E|-8-----8-----8-----8--8--10----10----------10-----|

   fly.
   1  &  2  &  3  &  4  &  1  &  2  &  3  &  4  &
e|--------------------------------------------------|
B|--------------------------------------------------|
G|--------------------------------------------------|
D|----0-----0-----0-----0-----0-----0-----0-----0---| 
A|--------------------------------------------------|
E|-0-----0-----0-----0-----0-----0-----0-----0------|

*********************************
rinse and repeat for second verse
*********************************

When I come
Give me a beat
and take my advice
Just let me be

When the moon,
turns black as night
When it erupts
Oh, dragonfly
Fly Dragonfly

*******************************************
solo follows chorus pattern for rhythm guit
*******************************************

Bridge
   
   Doooooooonnnnnnnnnn't   taaaaake    sooooo
   1  &  2  &  3  &  4  &  1  &  2  &  3  &  4  &
e|--------------------------------------------------|
B|--------------------------------------------------|
G|-10-10-10-10-10-10-10-10-10-10-10----10~~~~~------|
D|-0--0--0--0--0--0--0--0--0--0--0-----8~~~~~~------|
A|-0--0--0--0--0--0--0--0--0--0--0-----8~~~~~~------|
E|-0--0--0--0--0--0--0--0--0--0--0-----8~~~~~~------|

   looooooooooooong    I've been here before  you
   1  &  2  &  3  &  4  &  1  &  2  &  3  &  4  &
e|-5--5--5--5--5--5--5--5---------------------------|
B|-6--6--6--6--6--6--6--6---------------------------|   full chords 
G|-7--7--7--7--7--7--7--7--10----------12-----------|   sound better
D|-7--7--7--7--7--7--7--7--8-----------10-----------|   on the acoustic  :)
A|-5--5--5--5--5--5--5--5--8-----------10-----------|
E|-5--5--5--5--5--5--5--5--8-----------10-----------|

   knooooooooooooooowww    See you in my  mind's
   1  &  2  &  3  &  4  &  1  &  2  &  3  &  4  &
e|--------------------------------------------------|
B|--------------------------------------------------|
G|-10-10-10-10-10-10-10-10-10-10-10----10~~~~~------|
D|-0--0--0--0--0--0--0--0--0--0--0-----8~~~~~~------|
A|-0--0--0--0--0--0--0--0--0--0--0-----8~~~~~~------|
E|-0--0--0--0--0--0--0--0--0--0--0-----8~~~~~~------|

   eye         Flyyy       draaaaaaggggoooonnn
   1  &  2  &  3  &  4  &  1  &  2  &  3  &  4  &
e|-5--5--5--5--8--8--8--8--10-10-10-10-10-10-10-----|
B|-6--6--6--6--8--8--8--8--10-10-10-10-10-10-10-----|  
G|-7--7--7--7--10-10-10-10-12-12-12-12-12-12-12-----| 
D|-7--7--7--7--10-10-10-10-12-12-12-12-12-12-12-----|
A|-5--5--5--5--8--8--8--8--10-10-10-10-10-10-10-----|
E|-5--5--5--5--8--8--8--8--10-10-10-10-10-10-10-----|

   fly.        Flyyy       draaaaaaggggoooonnn
   1  &  2  &  3  &  4  &  1  &  2  &  3  &  4  &
e|--------------------------------------------------|
B|--------------------------------------------------|
G|-10-10-10-10-10-10-10-10-10-10-10-10-10-10-10-10--|
D|-8--8--8--8--8--8--8--8--8--8--8--8--8--8--8--8---|
A|-8--8--8--8--8--8--8--8--8--8--8--8--8--8--8--8---|
E|-8--8--8--8--8--8--8--8--8--8--8--8--8--8--8--8---|


   fly.        Flyyy       draaaaaaggggoooonnn
   1  &  2  &  3  &  4  &  1  &  2  &  3  &  4  &
e|--------------------------------------------------|
B|--------------------------------------------------|
G|-12-12-12-12-12-12-12-12-12-12-12-12-12-12-12-----|  
D|-10-10-10-10-10-10-10-10-10-10-10-10-10-10-10-----|
A|-10-10-10-10-10-10-10-10-10-10-10-10-10-10-10-----|
E|-10-10-10-10-10-10-10-10-10-10-10-10-10-10-10-----|

   FLLLLLLLLLLLYYYYYYYYYYYY
   1  &  2  &  3  &  4  &  1  &  2  &  3  &  4  &
e|--------------------------------------------------|
B|--------------------------------------------------|
G|-------------------------10-10-10-10-10-10-10-10--|
D|-------------------------0--0--0--0--0--0--0--0---|
A|-------------------------0--0--0--0--0--0--0--0---|
E|-------------------------0--0--0--0--0--0--0--0---|

   1  &  2  &  3  &  4  &  1  &  2  &  3  &  4  &
e|--------------------------------------------------|
B|--------------------------------------------------|
G|-10-10-10-10-10~~~~------7--7--7--7--7--7--7--7---|
D|-0--0--0--0--8~~~~~------5--5--5--5--5--5--5--5---|
A|-0--0--0--0--8~~~~~------5--5--5--5--5--5--5--5---|
E|-0--0--0--0--8~~~~~------5--5--5--5--5--5--5--5---|

   1  &  2  &  3  &  4  &  1  &  2  &  3  &  4  &
e|--------------------------------------------------|
B|--------------------------------------------------|
G|-10-10-10-10-10~~~~------12\10-10-10-10-10-10-10--|
D|-8--8--8--8--8-~~~~------10^0--0--0--0--0--0--0---|
A|-8--8--8--8--8-~~~~------10^0--0--0--0--0--0--0---|
E|-8--8--8--8--8-~~~~------10^0--0--0--0--0--0--0---|

                                       Flyyyyyy
   1  &  2  &  3  &  4  &  1  &  2  &  3  &  4  &
e|--------------------------------------------------|
B|--------------------------------------------------|
G|-10-10-10-10-10~~~~------7--7--7--7--7--7--7--7---|
D|-0--0--0--0--8~~~~~------5--5--5--5--5--5--5--5---|
A|-0--0--0--0--8~~~~~------5--5--5--5--5--5--5--5---|
E|-0--0--0--0--8~~~~~------5--5--5--5--5--5--5--5---|

               dragonfly
   1  &  2  &  3  &  4  &  1  &  2  &  3  &  4  &
e|--------------------------------------------------|
B|--------------------------------------------------|
G|--------------------------------------------------|
D|-8-----12-7--5--8--3-----0--0--------------0--0---|
A|-8-----12-7--5--8--3-----0--0--------------0--0---|
E|-8-----12-7--5--8--3-----0--0--------------0--0---|

   1  &  2  &  3  &  4  &  1  &  2  &  3  &  4  &
e|--------------------------------------------------|
B|--------------------------------------------------|
G|-------------9~~~~~-------------------------------|  
D|-0--0--0--0--10~~~~------0--0--------------0--0---|
A|-0--0--0--0--8~~~~~------0--0--------------0--0---|
E|-0--0--0--0--0-----------0--0--------------0--0---|
Tap to rate this tab
# A B C D E F G H I J K L M N O P Q R S T U V W X Y Z