Guitaretab - guitar tabs
Song name
# A B C D E F G H I J K L M N O P Q R S T U V W X Y Z

Shampoo - Dont Call Me Babe tab

Donít Call Me Babe - Shampoo

Intro
e|--------------------------------------------------------------|
b|--------6--5--6--------6--5--6--------6--5--6--5--6--5--------|
g|--7--7--------------------------------------------------5--7--|
d|-----------------8--8-----------5--5--------------------------|
a|--------------------------------------------------------------|
E|--------------------------------------------------------------|
[ Tab from: http://www.guitaretab.com/s/shampoo/76763.html ]
Verse
e|--------------|
b|--------------|
g|--7-----------|
d|--7--8--5--8--|
a|--5--8--5--8--|
E|-----6--3--6--|
Pm  .  .  .  .

Pre-Chorus
e|--------------|
b|--------------|
g|--------------|
d|--5--5--7--8--|
a|--5--5--7--8--|
E|--3--3--5--6--|

Chorus
e|--------------------------------------------------3--|
b|--------------------------------------------------3--|
g|--7-----------------------------------7-----------5--|
d|--7--8--5--8--------------------------7--8--5--8--5--|
a|--5--8--5--8--1--0--------1--0--------5--8--5--8--5--|
E|-----6--3--6--------3--1--------3--1-----6--3--6--3--|
Related for Dont Call Me Babe tab