Song name
# A B C D E F G H I J K L M N O P Q R S T U V W X Y Z

Shamrock - Alipin tab

 Tabbed by: Marc Don R. Barsatan
Band: Shamrock
Song: Alipin
Part of Song: Intro
E-mail: markzk_06@yahoo.com

This part uses standard tuning on strings.
This is the intro part of the song.
99.9% sure...


    G                  C
e|---3--------|-2--0--|-----------0-----------|
B|-3---3---3--|-------|--------0----3-----3---|
G|------0-----|-------|-----0-----------0-----|
D|------------|-------|-----------------------|
A|---------2--|-2--3--|-3---------------------|
E|-3----------|-------|-----------------------|

e|---3--------|-2--0--|---------0-------------|
B|-3---3---3--|-------|-------0----3------1p0-|
G|------0-----|-------|-----0-----------0----0|
D|------------|-------|-----------------------|
A|---------2--|-2--3--|-----------------------|
E|-3----------|-------|-3---------------------|



i hope this tab works
enjoy playing this tab :)
Tap to rate this tab
# A B C D E F G H I J K L M N O P Q R S T U V W X Y Z