Guitaretab - guitar tabs
Song name
# A B C D E F G H I J K L M N O P Q R S T U V W X Y Z

Shamrock - Ako Pa Rin tab

*******************************************************************************
			 ako pa rin - shamrock
_______________________________________________________________________________
*******************************************************************************

Transcribed by : mark andrew toledo  - 15 y/o  (pangasinan)
Email: falcon_2030123@yahoo.com
Tuning: Standard tuning.
date: september 7, 2006

tamang tama na to ..(97.6%)...!! ( astig jordz!!!)
pakinggan nyo nalng sa cd para alm nyo ung tyming..dedicated to ...*********

intro :

e|----------------------------------------------3-------------|
B|------3--t--------3----1--0--------3----------3-------------|
G|------0--a--------0----0--0--0-----0------0-----------------|
D|-----------------------------2--2-------2-------------------|
A|---------------2----------------------3---------------------|
E|------3--p--3-----------------------------------------------|

e|----------------------------------------------3-------------|
B|------3--t--------3----1--0--------3----------3-------------|
G|------0--a--------0----0--0--0-----0------0-----------------|
D|-----------------------------2--2-------2-------------------|
A|---------------2----------------------3---------------------|
E|------3--p--3-----------------------------------------------|

verse 1:

e|------------------------------------------------------------------------|
B|--0--t--------------------3-------0--t------------------3---------------|
G|--0--a--2-----0------0----0---0---0--a--2-----0-----0---0---------------|
D|--------0--3---------3--------------0---0--3--------3-------------------|
A|------------------------------------------------------------------------|
E|--3--p--3---------3-------3-------3--p--3--------3------3---------------|              
  pagsapit ng ulan ...      doon mo mararamdaman ....
.
e|-----------0--------------3---------0-----------------0----------0--------2----|
B|--3--3--t--3-----3--------3---3--t--3-----3--2-----t--3-----0----3---3----3-3--|
G|--0--0--a--0-----0------------0--a--0-----0--0--0--a--0-----0----------2-----2-|
D|-----------------------2----2-------------------------------0-0--0--------0----|
A|--3-----p--3--3-----3---------3--p--3--3--3--3-----p--0--3---------------------|
E|-------------------------------------------------------------------------------|
    na kailangan mo pla ...        ng pusong magbibigay ...     saya....

verse 2:

e|------------------------------------------------------------------------|
B|--0--t--------------------3-------0--t------------------3---------------|
G|--0--a--2-----0------0----0---0---0--a--2-----0-----0---0---------------|
D|--------0--3---------3--------------0---0--3--------3-------------------|
A|------------------------------------------------------------------------|
E|--3--p--3---------3-------3-------3--p--3--------3------3---------------|              
  kung sino ang mali.....       ang siyang hihingi...
[ Tab from: http://www.guitaretab.com/s/shamrock/78066.html ]
e|-----------0--------------3---------0-----------------0----------0--------2----|
B|--3--3--t--3-----3--------3---3--t--3-----3--2-----t--3-----0----3---3----3-3--|
G|--0--0--a--0-----0------------0--a--0-----0--0--0--a--0-----0----------2-----2-|
D|-----------------------2----2-------------------------------0-0--0--------0----|
A|--3-----p--3--3-----3---------3--p--3--3--3--3-----p--0--3---------------------|
E|-------------------------------------------------------------------------------|
     ng patwad at pangako.....            hindi na mauulit.....  muli...

chorus:
- g   d             bm
  at...may pag-ibig pa kaya..
- d                 bm
  may pag-asa bang magbago..
-          d         g
  ang puso mo....

verse 3:

e|------------------------------------------------------------------------------------------------------------|
B|--0--t--------------------3-------0--t------------------3---------------------------------------------------|
G|--0--a--2-----0------0----0---0---0--a--2-----0-----0---0---------------------------------------------------|
D|--------0--3---------3--------------0---0--3--------3-------------------------------------------------------|
A|------------------------------------------------------------------------------------------------------------|
E|--3--p--3---------3-------3-------3--p--3--------3------3---------------|              
  handa naba akong--|               harapin ang totoo....
e|-----------0--------------3---------0-----------------0----------0--------2---------------------------------|
B|--3--3--t--3-----3--------3---3--t--3-----3--2-----t--3-----0----3---3----3-3-------------------------------|
G|--0--0--a--0-----0------------0--a--0-----0--0--0--a--0-----0----------2-----2------------------------------|
D|-----------------------2----2-------------------------------0-0--0--------0---------------------------------|
A|--3-----p--3--3-----3---------3--p--3--3--3--3-----p--0--3--------------------------------------------------|
E|------------------------------------------------------------------------------------------------------------|
   may pag-ibig ka paba..               akong itoy       naglaho na........


chorus:
- g   d             bm
  at...may pag-ibig pa kaya..
- d                 bm
  may pag-asa bang magbago..
-          d         g
  ang puso mo...

- g   d             bm
  at...maytiwala ka pa ba>...
- d             bm
  akoy.....nananalangin
-          d                  g
  na ako pa rin ang iyong iibigin....

bridge:

- g         d       bm           d
  dapat nga bang........pusong kay lamig
- bm                  d
  nandito nanaman....ang ulan....

 (repeat chorus)

outro:

e|----------------------------------------------3-------------|
B|------3--t--------3----1--0--------3----------3-------------|
G|------0--a--------0----0--0--0-----0------0-----------------|
D|-----------------------------2--2-------2-------------------|
A|---------------2----------------------3---------------------|
E|------3--p--3-----------------------------------------------|

e|----------------------------------------------3-------------|
B|------3--t--------3----1--0--------3----------3-------------|
G|------0--a--------0----0--0--0-----0------0-----------------|
D|-----------------------------2--2-------2-------------------|
A|---------------2----------------------3---------------------|
E|------3--p--3-----------------------------------------------|


    thx...paki rate nlang po.......sure ako dyan...
Related for Ako Pa Rin tab
Ako Pa Rin chords by Shamrock