Guitaretab - guitar tabs
Song name
# A B C D E F G H I J K L M N O P Q R S T U V W X Y Z
Home / S / Shandon / Ruvida tab

Shandon - Ruvida tab

RUVIDA - Shandon
(dropped D tuning)
moonflower2241@hotmail.it

Intro:
|--------------------------------------------------------------|
|--------------------------------------------------------------|
|-7\6\4-----------7\6\4------------6-9--7-7-7-7--7-6-7-9-9-9-9-|
|-7\6\4-7-7-7-7---7\6\4-4-4-4-4----6-9--7-7-7-7--7-6-7-9-9-9-9-| x2
|-5\4\2-7-7-7-7---5\4\2-4-4-4-4----4-7--5-5-5-5--5-4-5-7-7-7-7-|
|-------7-7-7-7---------4-4-4-4--------------------------------|


Verse:
|--------------------------------------------------------------|
|--------------------------------------------------------------|
|--------------------------------------------------------------|
|-0-0-0-0-0-0-0-0-0-0-0-0-0-0-0-4-4-4-4-4-4-4-4-4-4-4-4-4--2-2-| x2
|-0-0-0-0-0-0-0-0-0-0-0-0-0-0-0-4-4-4-4-4-4-4-4-4-4-4-4-4--2-2-|
|-0-0-0-0-0-0-0-0-0-0-0-0-0-0-0-4-4-4-4-4-4-4-4-4-4-4-4-4--2-2-|
PM* *   * * *   * * *   * * *   * *   * * *   * * *   * *
            tu confondi la realtà
            certamente tu sai come finirà

Bridge:
|--------------------------------------------------------------------------|
|--------------------------------------------------------------------------|
|-7-7-7-7-7-7-7-7-7-7-7-7-7-7-7-7-6-6-6-6-6-6-6-6-6-6-6-6--11-11-11--9-9-9-|
|-7-7-7-7-7-7-7-7-7-7-7-7-7-7-7-7-6-6-6-6-6-6-6-6-6-6-6-6--11-11-11--9-9-9-|
|-5-5-5-5-5-5-5-5-5-5-5-5-5-5-5-5-4-4-4-4-4-4-4-4-4-4-4-4---9--9--9--7-7-7-|
|--------------------------------------------------------------------------|
                 lentamente su di me
[ Tab from: http://www.guitaretab.com/s/shandon/101729.html ]
|------------------------------------------------------------------------------------------------|
|------------------------------------------------------------------------------------------------|
|-7-7-7-7-7-7-7-7-7-7-7-7-7-7-7-7-6-6-6-6-6-6-6-6-6-6-6-6--7-7-7-6-6-6-4-4-4---------------------|
|-7-7-7-7-7-7-7-7-7-7-7-7-7-7-7-7-6-6-6-6-6-6-6-6-6-6-6-6--7-7-7-6-6-6-4-4-4-2-2-2-4-4-4-4-4-4-4-|
|-5-5-5-5-5-5-5-5-5-5-5-5-5-5-5-5-4-4-4-4-4-4-4-4-4-4-4-4--5-5-5-4-4-4-2-2-2-2-2-2-4-4-4-4-4-4-4-|
|----------------------------------------------------------------------------2-2-2-4-4-4-4-4-4-4-|
               così dolce nel succhiare così brava a vincere

Chorus:
|--------------------------------------------------------------|
|--------------------------------------------------------------|
|-7\6\4-----------7\6\4------------6-9--7-7-7-7--7-6-7-9-9-9-9-|
|-7\6\4-7-7-7-7---7\6\4-4-4-4-4----6-9--7-7-7-7--7-6-7-9-9-9-9-| x2
|-5\4\2-7-7-7-7---5\4\2-4-4-4-4----4-7--5-5-5-5--5-4-5-7-7-7-7-|
|-------7-7-7-7---------4-4-4-4--------------------------------|
  non avrai non avrai mai confini in ciò che vuoi
  non avrai non avrai pienamente ciò che vuoi


Post Chorus:
|-------------------------------------|
|-------------------------------------|
|-------------------------------------|
|-4-6-7-9-11-11-11-11-12-11-9-9-9-9-9-| x2
|-4-6-7-9-11-11-11-11-12-11-9-9-9-9-9-|
|-4-6-7-9-11-11-11-11-12-11-9-9-9-9-9-|

Parte il sax...

Verse2 (ska):
 e confonde la realtà
 così sadica la tua felicità

Bridge:
 brucia sale su di me
 la ferita che fa male io che lascio mordere

Chorus x2

Ending:
|---------------|      |-----|
|---------------|      |-----|
|-7-6-7-9-9-9-9-|      |-----|
|-7-6-7-9-9-9-9-| x3   |-7-7-|
|-5-4-5-7-7-7-7-|      |-7-7-|
|---------------|      |-7-7-|
 ciò che vuoi
 ciò che vuoi
 ciò che vuooooi.