Song name
# A B C D E F G H I J K L M N O P Q R S T U V W X Y Z

Shane And Shane - Unto You tab

Shane and Shane
Unto You

Tabbed by Jacob Ramirez

capo 1

Intro/verse:


pick through these chords | strum these
----------------------------------------|
--1--1--1--1--1------------3--3--3------|
--0--0--0--0--0------------0--2--2------|
--2--0--2--2--2------------2--0--0------|
--3--2--0--0--0------------2--0--0------|
-----------0--1------------0--2--3------|


prechorus:

"yes you are"   x4
------------------------|
---3--3--3--------------|
---0--2--2--------------|
---2--0--0--------------|
---2--0--0--------------|
---0--2--3--------------|


Chorus:

---------3-3--------1-1-----------|
--1-1----0-0--1-1---1-1-----------|
--0-0----0-0--2-2---2-2-----------|
--2-2----0-0--2-2---3-3-----------|
--3-3----2-2--0-0---3-3-----------|
---------3-3--------1-1-----------|


Bridge:

"all i want to do is exalt you"

-----------------------------|
---5-5---3-3-----------------|
---5-5---3-3-----------------|
---5-5---3-3-----------------|
---3-3---1-1-----------------|
-----------------------------|


Outro: same as chorus

but end with
--------------------------|
----3---3--3--------------|
----0---2--2--------------|
----2---0--0--------------|
----2---0--0--------------|
--------2--3--------------|
Tap to rate this tab
 
# A B C D E F G H I J K L M N O P Q R S T U V W X Y Z