Song name
# A B C D E F G H I J K L M N O P Q R S T U V W X Y Z

Shane And Shane - Rain Down tab

Rain Down
Shane Barnard & Shane Everett
Key: A

Capo 2

tabbed by weksa
contact: weksa@live.com
http://www.youtube.com/watch?v=DJfn8oIlbJo
(how I play it)

contact: weksa@live.com

Intro riff:

e|-2h3-2-0------------------------------|
B|---------3----------------------------|
G|-----------4/5-4-2-0------------------|
D|--------------------------------------|
A|--------------------------------------|
E|--------------------------------------|

Intro: (this does NOT show strumming pattern)
   G   Em                  C     G     D
e|-3---0-------------------0-0-0-3-3-2-2-3-2-----|
B|-3---0-------------------1-1-1-0-0-0-3-3-3-----|
G|-0---0-----0---0---0---0-0-0-0-0-0-0-2-2-2-----|
D|-0---2-4/5---4---2---0---2-0-2-0-0-0-0-0-0-----|
A|-0h2-2-------------------3-3-3-2-0-2-----------|
E|-3---0-------------------------3-3-3-----------|

Chords used:
  G/B  C   D      Am7  G  D/F# Em  C     G
e|-3---3---2-3-0---0---3---3---0---0-0---3-3----|
B|-3---3---3-3-3---1---3---3---0---1-1---0-0----|
G|-0---0---2-2-2---0---0---2---0---0-0---0-0----|
D|-0---2---0-0-0---2---0---0---2---2-0---0-0----|
A|-2---3-----------0---2---x---2---3-3---2-0----|
E|---------------------3---2---0---------3-3----|


Verse 1:
G/B                   C
 In the light of the King's face
            D
There is life
       G/B           C
Giving favor to His children
                    D
Like a cloud of rain

                G/B
Rain is falling in Your presence
C               D
On our thirsty hearts
               G/B               C
As we seek the knowledge of Your will
           D
Oh God, impart


Prechorus:
Am7        G/B         C
 Oh, never ever ending river
        D
Fill us up


Chorus:
     G
Lord, rain down upon us
Em
 Rain down upon us
        C            G
We need You, we need You
     D
Rain down

             G
We're asking You, rain down upon us
Em
 Rain down upon us
        C            G
We need You, we need You
     D
Rain down


Verse 2:
G/B           C
 One thing we ask
                      D
And Lord, we humbly seek
             G/B              C
That in Your shelter we could hide
                    D
And gaze upon the King

-
In Your presence
G/B               C              D
We find fullness, we are satisfied
-
Come, Lord Jesus
G/B           C                         D
Let us look upon You with enlightened eyes


Bridge:
C               D
 You're raining down
-
And we are filling up
C                 D
 You keep raining down
-
And we keep filling up

C               D
 You're raining down
-
And we are filling up
C               D
 You're raining down
Tap to rate this tab
 
# A B C D E F G H I J K L M N O P Q R S T U V W X Y Z