Song name
# A B C D E F G H I J K L M N O P Q R S T U V W X Y Z

Shane And Shane - Be Near tab

Be Near
Shane Barnard & Shane Everett
Key: C

Capo 5

Intro is based on http://www.youtube.com/watch?v=-Uq8ZVj5Hww
Verse picking based on http://www.youtube.com/watch?v=hk_jBfJi_pk

Interpretation into Tab by weksa
Contact: weksa@live.com
Tutorial: http://www.youtube.com/watch?v=JdV4VlCNefg


Intro:
   G             D/F#
e|-----------------------------------------------|
B|-----------------------------------------------|
G|---0h2-2h4-2p0-----0h2---2-2-0-----------------|
D|---0-------------0---------0-------------------|
A|-----------------------------------------------|
E|-3-------------2-------------------------------|

   Em7           D
e|-------------------0-2-3-2p0-------------------|
B|-----------------------------3-----------------|
G|---0h2-2h4-2p0---2-----------------------------|
D|---0-----------0-------------------------------|
A|-----------------------------------------------|
E|-0---------------------------------------------|

   C             G/B
e|-------------------------------------------------|
B|-------------------------------------------------|
G|---0h2-2h4-2p0-----0h2---2-2-0-------------------|
D|---0-------------0---------0---------------------|
A|-3-------------2---------------------------------|
E|-------------------------------------------------|

   D-ending1
e|-----0---3---2---3---2-------------------------|
B|-----3---------3---------3---------------------|
G|---2-2-2---------------2-----------------------|
D|-0---0-----------------------------------------|
A|-----------------------------------------------|
E|-----------------------------------------------|

   D-ending2
e|-----0---3-------2-----------------------------|
B|-----3-------3---------------------------------|
G|---2-2-2-------2-------------------------------|
D|-0---0-----------------------------------------|
A|-----------------------------------------------|
E|-----------------------------------------------|


Verses:
   Em*              C*
e|-----------------------------------------------|
B|---------3---------------3---------------------|
G|-------0-----0-------0-------0-----------------|
D|-----4-----4---4---4---4---4---4---------------|
A|---2-------------3-----------------------------|
E|-0---------------------------------------------|

h  hammer-on
p  pull-off
/  slide up


Verse 1:
Em*      C*           Em*          C*
You are all, big and small, beautiful
Em*        C*                            Em*
And wonderful to trust in grace through faith
                  C*
But I'm asking to taste


Prechorus:
   Am7       Em*       C*      Dsus4
e|-0-----------------------------3---------------|
B|-1----/----3---------3---------3---------------|
G|-0---------0---------0---------2---------------|
D|-2----/----4---------4---------0---------------|
A|-0---------2---------3-------------------------|
E|-----------0-----------------------------------|

Am7                   Em*
For dark is light to You
                         C*
The depths are height to You
                 D
Far is near, but Lord I need to hear from You


Chorus:
   G    D/F#  Em7  Dsus4   C    G/B    D
e|-3-----3-----3-----3-----3-----3-----2---------|
B|-3-----3-----3-----3-----3-----3-----3---------|
G|-0-----2-----0-----2-----0-----0-----2---------|
D|-0-----0-----2-----0-----x-----0-----0---------|
A|-x-----x-----2-----------3-----2---------------|
E|-3-----2-----0---------------------------------|

   G        D/F#
Be near, oh God
   Em7      Dsus4
Be near, oh God of us
     C        +     +     D
Your nearness is to us our good
   G        D/F#
Be near, oh God
   Em7      Dsus4
Be near, oh God of us
     C        +     +     D          B*  C*
Your nearness is to us our good, our good

++Depending on which version you play, G/B can be in either spot.


Verse 2:
Em*               C*   Em*           C*
Your fullness is mine, revelation divine
Em*        C*                              Em*
But oh to taste, to know much more than a page
               C*
To feel Your embrace...

(Psalms 73:28; 139)
Tap to rate this tab
 
# A B C D E F G H I J K L M N O P Q R S T U V W X Y Z