Song name
# A B C D E F G H I J K L M N O P Q R S T U V W X Y Z

Shane And Shane - Great Reward tab

Great Reward
Shane Barnard & Shane Everett
Key: G

tabbed and chorded by weksa
contact: weksa@live.com
tutorial: http://www.youtube.com/watch?v=l-KsKgp9c7E


I provide some fill notes if you need them in this tab.
But I don't show every single note,
because I don't play consistently.


Intro/Verse:
   G   C      G  ^ ^ v ^ ^ v ^ ^ v
e|---------------------------------------------|
B|-3---3---3--3--3-----3-----3-----------------|
G|-0---0h2-4--4----4-----4-----4---------------|
D|-0----------0------0-----0-----0-------------|
A|-----3---3-----------------------------------|
E|-3----------3--------------------------------|

   C          G   Dsus2  v ^ ^ v ^  v ^ ^ v
e|-------------------------0----------0--------|
B|-------3----3--------3-----3---3------3------|
G|---2h4---4--4--------2-2-----2----2-----2----|
D|------------0--------0-----------------------|
A|-3----------2--------------------------------|
E|------------3--------------------------------|

   G   C      G  ^ ^ v ^ ^ v ^ ^ v
e|---------------------------------------------|
B|-3---3---3--3--3-----3-----3-----------------|
G|-0---0h2-4--4----4-----4-----4---------------|
D|-0----------0------0-----0-----0-------------|
A|-----3---3-----------------------------------|
E|-3----------3--------------------------------|

   C   D   G   C  D  G  v ^ v ^ v  ^ v ^
e|-----------|---------------------------------|
B|-3---3---3-|-3--3-----1-0--------------------|
G|-0---2---0-|-0--2--0------2-0----------------|
D|-2---0---0-|-2--0--0----------/5-5-4-0-------|
A|-3---------|-3-----2-------------------------|
E|---------3-|-------3-------------------------|

v - downstroke
^ - upstroke
h - hammer on
/ - slide up


Verse 1:
G                C        G
Jesus, You're my great reward
C          G        D
You are my portion, Lord
G                   C         G
While in heaven You plead for me
C             D          G
Draw my every thought to Thee
C             D          G
Draw my every thought to Thee


Chorus:
         D  v  ^ v ^ v ^ v ^
e|---------------------------------------------|
B|-------3-------------------------------------|
G|-------0-----0---0---0---0-------------------|
D|-------4--/5---4---2---0---------------------|
A|-------5-------------------------------------|
E|---------------------------------------------|
  ...my King

v - downstroke
^ - upstroke
h - hammer on
/ - slide up


Em C  G    D    Em
 I--- love you, Lord
  C       D
Jesus, my King
Em     C          G    D    C
 And I--- want to love You more
          D
My great reward


Verse 2:
  G                       C      G
I have this treasure in a jar of clay
C              G     D
All Your glory on display
     G            C        G
In a sinner who's saved by grace
C                  D        G
You have made me a dwelling place
C                  D        G
You have made me a dwelling place


Bridge:
    C/G             D/A
For You are all I'm living for
    C/G               D/A
I'm moving toward the prize
    C/G             D/A
One thing I ask and this I seek
   C/G            D/A
To gaze into Your eyes
Tap to rate this tab
 
# A B C D E F G H I J K L M N O P Q R S T U V W X Y Z