Song name
# A B C D E F G H I J K L M N O P Q R S T U V W X Y Z

Shane And Shane - Saved By Grace tab

Artist: Shane & Shane
Title: Saved By Grace
Key of E (9th fret)

Intro: 

e---------------------------------------------------------------|
B---------------------------------------------------------------|
G---------2-------0-------0----------0-0h2------2h4--2-0--------|
D--------0-------0-------0-----0h2h4---0--------0----0-0--------|
A------------0h2-------3----------------------------------------|
E--5p3-3--------------------------------------------------------|

e---------------------------------------------------------------|
B------------------------------------------3--------------------|
G-----2---------0-------0------------0--------------------------|
D----0---------0-------0--0---0-0h2h4--4------------------------|
A----------0h2-------3------------------------------------------|
E--3------------------------------------------------------------|

Before verse 2:

e---------------------------------------------------------------|
B---------------------------------------------------------------|
G---------2-------0-------0----------0-0h2----------------------|
D--------0-------0-------0-----0h2h4---0------------------------|
A------------0h2-------3------------------------0-0h2-0---------|
E--5p3-3------------------------------------------------3-------|
Tap to rate this tab
 
# A B C D E F G H I J K L M N O P Q R S T U V W X Y Z