Song name
# A B C D E F G H I J K L M N O P Q R S T U V W X Y Z

Shane And Shane - Though You Slay Me tab

Standard Tuning
Capo 2

   Intro  
             C              C G    D  (Riff 1)
|--------------------------------|----------------|
|------------1--------------1----|--------3-------|
|------0-----0--------------0----|------0---0---0-|
|--2/4---4-0-0h2------------2----|----4-------3---|
|------------3--------------3-2--|--5-------------|
|0----------------------------3--|----------------|

             C              C  
|-----------------------------------------0-0---------------------|
|------------1--------------1---1--1--1---3-3--------3------------|
|------0-----0--------------0---0--0--0---5-4------0---0---0---0--|
|--2/4---4-0-0h2------------2---2--2--2---5-5----4-------3---3----|
|------------3--------------3---3--3--3---0-0--5------------------|
|0----------------------------------------------------------------|

Verse 1
  Em           D
I come, God, I come
   Am           Em
I return to the Lord
             C
The one whos broken
              G            D(Riff 1)
The one whos torn me apart
          Em              D
You strike down to bind me up
           Am            Em
You say you do it all in love
             C        G           D(Riff 1)
That I might know you in your suffering


Chorus
           C    G
Though you slay me
Em         D
Yet I will praise you
           C        G
Though you take from me
Em               D
I will bless your name
           C    G
Though you ruin me
Em             D
Still I will worship
       C                     D      Em    
Sing a song to the one whos all I need


Verse 2

My heart and flesh may fail
The earth below give way
But with my eyes, with my eyes Ill see the Lord
Lifted high on that day
Behold, the Lamb that was slain
And Ill know every tear was worth it all

Em  C   Em   C


Bridge
C                  Em
Though tonight Im crying out
D                 Am
Let this cup pass from me now
C             D            Em
Youre still more than I need
       C    G       Em
Youre enough for me
       C    G       D
Youre enough for me
Tap to rate this tab
# A B C D E F G H I J K L M N O P Q R S T U V W X Y Z