Song name
# A B C D E F G H I J K L M N O P Q R S T U V W X Y Z

Shane And Shane - Fringes tab

Capo 1

***On the slide (6s8s9) during the chorus, you?ll actually
use your pinky finger that is originally on the D string
7th fret, to slide down the fretboard.


Intro/Verse:

E--4------------4---------X-------------X----------|
B--4?4h5p4------4---------0-------------0----------|
G--4------------4---------4-------------2----------|
D--4-4h6p4------4---------4-------------2----------|
A--4------------4---------X-------------X----------|
E--4------------4---------4-------------2----------|


Chorus:

E--0----0-------x-------x----x-----0-------0-----5-----0--|
B--7----0-------x-------x----7-----0-------0-----5-----0--|
G--9----8-------6s8s9---8----9-----8-------6-----5-----1--|
D--9----9s11----7-------9----9-----9s11----7-----7-----4--|
A--X----9-------7-------9----x-----9-------7-----7-----2--|
E--9----7-------5-------7----9-----7-------5-----5-----0--|


Bridge:

E---2----5-----2-----5-----2----0-----2-----0-----0------|
B---2----5-----2-----5-----2----0-----2-----0-----0------|
G---3----6-----3-----6-----3----2-----3-----2-----2------|
D---4----7-----4-----7-----4----0-----4-----0-----2------|
A---4----7-----4-----7-----4----X-----4-----X-----0------|
E---2----5-----2-----5-----2----3-----2-----3-----X------|


Chorus:

E--0----0-------0----------0-----0-------0-----5-----0----|
B--7----0-------0----------7-----0-------0-----5-----0----|
G--9----8-------6s8s9------9-----8-------6-----5-----1----|
D--9----9s11----7----------9-----9s11----7-----7-----4----|
A--X----9-------7----------X-----9-------7-----7-----2----|
E--9----7-------5----------9-----7-------5-----5-----0----|
Tap to rate this tab
# A B C D E F G H I J K L M N O P Q R S T U V W X Y Z