Song name
# A B C D E F G H I J K L M N O P Q R S T U V W X Y Z

Shane Bernard - Answer tab

"The Answer" by Shane & Shane
(1st Guitar Part) - Tab by: Joshua Biggar

Partial Capo 2nd Fret.
h - hammer on
p - pull off
s - slide
~ - let ring out
v - vibrato

Intro

e-------------------------------------------------------------------------------|
b-------------------------------------------------------------------------------|
g------------------------8--------------9-----------------8--h--9----------8----|
d------------------------0--------------0-----------------0------------------0--|
a-------------------------------------------------------------------------------|
e---2----s----9---------------9---------------9---------------------7-----------|


e---------------------------------------------------------------------------------------------|
b---------------------------------------------------------------------------------------------|
g----8--------------9----------------8--h--9------------------4--------------4----------------|
d----9--------------9----------------9--------------------------4--------------4--------------|
a---------------------------------------------------------------------------------------------|
e----------7-----------------7---------------------6-----6------------6---------------6-------|


e---------------------------------------------------------------------------------------------|
b---------------------------------------------------------------------------------------------|
g---4-------------------------4-------------------------0--h--4--6--s--8--s--9----------------|
d---4-------------------0----------0--h--4--h--6----------------------------------------------|
a---------------------------------------------------------------------------------------------|
e---------6------5-----------------------------------------------------------------------9----|


e----------------------------------------------------------------------------------------------|
b----------------------------------------------------------------------------------------------|
g---------8-------------8--h--9-------8--h--9--------------8----------8--h--9------------------|
d---------0-------------0---------------0---------------------9----------9---------------------|
a----------------------------------------------------------------------------------------------|
e---9-----------9------------------------------------7--7-----------7--------------------------|

e----------------------------------------------------------------------------------------------|
b----------------------------------------------------------------------------------------------|
g---8--h--9--------------4----------------------4-----------4----------------------------------|
d---9----------------------4----------------------0-----------0-------0--h--4--h--6------------|
a----------------------------------------------------------------------------------------------|
e----------------6--6-----------4-h-5----5-----------5-----------------------------------------|


e----------------------------------------------------------------------------------------------|
b----------------------------------------------------------------------------------------------|
g---0--h--4--6--s--8--s--9---------------9--------------8--------8--s--v11----9----------------|
d----------------------------------------------0--------------0--------------------------------|
a----------------------------------------------------------------------------------------------|
e----------------------------------9---9-------------9-----------------------------------------|


e---------------------------------------------------------------------------------------------|
b-----------------------------------------------------------------------9--h--11--11--s--v12--|
g---8--h--9--p--8--------------------------------------9--h--11-------------------------------|
d----------------------9----9--s--v11-----9--h--11--------------------------------------------|
a---------------------------------------------------------------------------------------------|
e---------------------------------------------------------------------------------------------|


e----------------------------------------------------------------------------------------------|
b-----12--s--14--14--14---12-------------------------------------------------------------------|
g--------------------------------------13---------------9----------9------------9--------------|
d---------------------------------------------------------9----------9------------9------------|
a---------------------------------------------------------x----------x------------x------------|
e----------------------------------------------9--9-------------9-----------9------------9-----|


e----------------------------------------------------------------------------------------------|
b----------------------------------------------------------------------------------------------|
g---------------8--------------8--------------8-h-9-----------------4---------------------4----|
d---------------9--------------9--------------9-----------------------4---------------------0--|
a---------------0--------------0--------------0----------------------------------------------0-|
e-----7--7-----------7----------------7--------------------6--6-----------4-h-5---5-----5------|


e---5------------5-----------5------------5------------5---------5-----5-----5-----5-----5---|
b---4------------5-----------4------------5------------4-h-5----5-----5-----5-----5-----5----|
g---0------------0-----------0------------0------------0----------0-----0-----0-----0-----0--|
d---0------------0-----------0------------0------------0----------0-----0-----0-----0-----0--|
a---0------------0-----------0------------0------------0----------0-----0-----0-----0-----0--|
e---5-----5-----5-----5-----5-----5-----5-----5-----5----------5-----5-----5-----5-----5-----|


Verse

e---------------------------------------------------------------------------------------------|
b---------------------------------------------------------------------------------------------|
g-------------9----------9------------9------------------8--------------8--------------8-h-9--|
d-------------9----------9------------9------------------9--------------9--------------9------|
a-------------x----------x------------x------------------0--------------0--------------0------|
e---9--9-----9----------9------------9-------7--7-------------7----------------7--------------|


e------------------------------------------------5------------5-----------5------------5------|
b------------------------------------------------4------------5-----------4------------5------|
g--------------4----------------------4---------0------------0-----------0------------0-------|
d--------------4----------------------0---------0------------0-----------0------------0-------|
a--------------------------------------0---------0------------0-----------0------------0------|
e---6--6-----------4-h-5---5------5---------5-----5-----5-----5-----5-----5-----5-------------|


e------------5---------5-----5-----5-----5-----5----------------------------------------------|
b------------4-h-5----5-----5-----5-----5-----5-----------------------------------------------|
g------------0----------0-----0-----0-----0-----0---------------------------------------------|
d------------0----------0-----0-----0-----0-----0---------------------------------------------|
a------------0----------0-----0-----0-----0-----0---------------------------------------------|
e-----5-----5----------5-----5-----5-----5-----5----------------------------------------------|


Chorus (Listen to song for how to strum it)


E5
e------------x-------------|
b------------x-------------|
g------------9-------------|
d------------9-------------|
a------------7-------------|
e------------0-------------|


E/D#
e------------x-------------|
b------------x-------------|
g------------11------------|
d------------9-------------|
a------------6-------------|
e------------x-------------|


C#m7
e------------x-------------|
b------------x-------------|
g------------9-------------|
d------------9-------------|
a------------x-------------|
e------------9-------------|


B2
e------------x-------------|
b------------x-------------|
g------------8-------------|
d------------11------------|
a------------9-------------|
e------------7-------------|


A5
e------------x-------------|
b------------x-------------|
g------------6-------------|
d------------7-------------|
a------------7-------------|
e------------5-------------|


E/G#
e------------x-------------|
b------------x-------------|
g------------6-------------|
d------------9-------------|
a------------7-------------|
e------------4-------------|


Bridge

E
e------------0-------------|
b------------0-------------|
g------------4-------------|
d------------0-------------|
a------------0-------------|
e------------0-------------|


A
e------------0-------------|
b------------0-------------|
g------------4-------------|
d------------0-------------|
a------------0-------------|
e------------5-------------|


B5
e------------x-------------|
b------------x-------------|
g------------8-------------|
d------------9-------------|
a------------9-------------|
e------------7-------------|
Tap to rate this tab
# A B C D E F G H I J K L M N O P Q R S T U V W X Y Z