Guitaretab - guitar tabs
Song name
# A B C D E F G H I J K L M N O P Q R S T U V W X Y Z

Shane Bernard - Psalm 13 tab

Intro:

e----------------------------------------------------------|
B----------------------------------------------------------|
G--5-5-5-5-4-2-------5-5-5-5-4-2-------5-5-5-5-4-2-------5-|
D--5-5-5-5-5-2-------5-5-5-5-5-2-------5-5-5-5-5-2-------5-|
A----------------------------------------------------------|
E--5-5-5-5-5--2-s-5--5-5-5-5-5--2-s-5--5-5-5-5-5--2-s-5--5-|

Verse:

    How   long,  O  Lord    will You forget me? How long, O
e----------------------------------------------------------|
B----------------------------------------------------------|
G--5-5-5-5-4-2--------5-5-5-5-4-2--------5-5-5-5-4-2-------|
D--5-5-5-5-5-2--------5-5-5-5-5-2--------5-5-5-5-5-2-------|
A----------------------------------------------------------|
E--5-5-5-5-5--2-s-5---5-5-5-5-5--2-s-5---5-5-5-5-5--2-s-5--|

 Lord,     will You hide?            Hide Your face from me
e--------------------------------------0------------0-0-0--|
B---------------------1-1-1-1-1-1-1-1--0------------0-0-0--|
G---5-5-5-5-4-2-------2-2-2-2-2-2-2-2--1------1-h-2-1-1-1--|
D---5-5-5-5-5-2-------3-3-3-3-3-3-3-3--2------------2-2-2--|
A---------------------3-3-3-3-3-3-3-3--2------------2-2-2--|
E---5-5-5-5-5--2-s-5--1-1-1-1-1-1-1-1--0------------0-0-0--|

e-------------------------------|
B-----------------------------5-|
G--5-5-5-5-4-2-------5-5-5------| (put finger on but donít
D--5-5-5-5-5-2-------5-5-5---5--|  press down on D and B)
A-------------------------------|
E--5-5-5-5-5--2-s-5--5-5-5------|

    How  long  must  I      wrestle with me  and everyday
e---------------------------------------------------------|
B---------------------------------------------------------|
G--5-5-5-5-4-2--------5-5-5-5-4-2--------5-5-5-5-4-2------|
D--5-5-5-5-5-2--------5-5-5-5-5-2--------5-5-5-5-5-2------|
A---------------------------------------------------------|
E--5-5-5-5-5--2-s-5---5-5-5-5-5--2-s-5---5-5-5-5-5--2-s-5-|

   have sorrow in my heart            Sorrow  in  my  heart
e-------------------------------------0------------0-0-0--|
B--------------------1-1-1-1-1-1-1-1--0------------0-0-0--|
G--5-5-5-5-4-2-------2-2-2-2-2-2-2-2--1------1-h-2-1-1-1--|
D--5-5-5-5-5-2-------3-3-3-3-3-3-3-3--2------------2-2-2--|
A--------------------3-3-3-3-3-3-3-3--2------------2-2-2--|
E--5-5-5-5-5--2-s-5--1-1-1-1-1-1-1-1--0------------0-0-0--|

e------------------------------------------------------3-3-|
B-------------------------------------1-1-1-1-1-1-1-1--1-1-|
G--5-5-5-5-4-2-------5-5-5-5-5-5-5-5--2-2-2-2-2-2-2-2--0-0-|
D--5-5-5-5-5-2-------5-5-5-5-5-5-5-5--3-3-3-3-3-3-3-3--0-0-|
A-------------------------------------3-3-3-3-3-3-3-3------|
E--5-5-5-5-5--2-s-5--5-5-5-5-5-5-5-5--1-1-1-1-1-1-1-1--3-3-|

e-3-3-3-3-3-3-|
B-1-1-1-1-1-1-|
G-0-0-0-0-0-0-| (Build on G until the chorus)
D-0-0-0-0-0-0-|
A-------------|
E-3-3-3-3-3-3-|
[ Tab from: http://www.guitaretab.com/s/shane-bernard/53104.html ]
Chorus:
     I will wait on You, I will wait on You,   wait on You
e-------------------------------------------------1-1-1---|
B--3-3--------1-1-1---3-3---------1-1-1---3-3-----2-2-2---|
G--5-5--------2-2-2---5-5---------2-2-2---5-5-----2-2-2---|
D--5-5--------3-------5-5---------3---------------3-------|
A-------------3-3-3---------------3-3-3---5-5-----3-3-3---|
E--5-5----------3-3---5-5-----------3-3---5-5-------3-3---|
                    I will wait on You, I will wait on You
e---------------------------------------------------------|
B-3-3-3-3-3-3-3-3--3-3---------1-1-1---3-3-------1-1-1----|
G-5-5-5-5-5-5-5-5--5-5---------2-2-2---5-5-------2-2-2----|
D-5-5-5-5-5-5-5-5--5-5---------3-------5-5-------3--------|
A------------------------------3-3-3-------------3-3-3----|
E-5-5-5-5-5-5-5-5--5-5-----------3-3---5-5---------3-3----|

wait on You
e--0-0--0-0-0-0--0------------0-0-0--|
B--1-1--1-1-1-1--0------------0-0-0--|
G--0-0--2-2-2-2--1------1-h-2-1-1-1--|
D--2-2--3-3-3-3--2------------2-2-2--|
A--0-0--3-3-3-3--2------------2-2-2--|
E----------------0-------------------|

Back into verse progression:
e----------------------------------------------------------|
B----------------------------------------------------------|
G--5-5-5-5-4-2--------5-5-5-5-4-2--------5-5-5-5-4-2-------|
D--5-5-5-5-5-2--------5-5-5-5-5-2--------5-5-5-5-5-2-------|
A----------------------------------------------------------|
E--5-5-5-5-5--2-s-5---5-5-5-5-5--2-s-5---5-5-5-5-5--2-s-5--|

e-------------------|
B-------------------|
G--5-5-5-5-5-5-5-5--|
D--5-5-5-5-5-5-5-5--|
A-------------------|
E--5-5-5-5-5-5-5-5--|

Verse 2: Same as verse 1

Look on me, Lord, and answer me
Give my eyes light or I will sleep in death
I will sleep in death

My enemies say, ďI will overcome himĒ
And my foes rejoice even when I fall
I donít want to fall

Chorus: Same as first chorus

Bridge:
      For I will trust in Your unfailing love    My heart
e--0-0-0-0-0-0-0-0--3-3-3-3-3-3-3-3-|    |-0-0-0-0-0-0-0-0-|
B--1-1-1-1-1-1-1-1--1-1-1-1-1-1-1-1-|    |-1-1-1-1-1-1-1-1-|
G--2-2-2-2-2-2-2-2--0-0-0-0-0-0-0-0-|    |-2-2-2-2-2-2-2-2-|
D--3-3-3-3-3-3-3-3--0-0-0-0-0-0-0-0-|    |-3-3-3-3-3-3-3-3-|
A--3-3-3-3-3-3-3-3------------------|    |-3-3-3-3-3-3-3-3-|
E--1-1-1-1-1-1-1-1--3-3-3-3-3-3-3-3-|    |-1-1-1-1-1-1-1-1-|

rejoices at  Your  salvation I will sing  to  the  Lord
e-3-3-3-3-3-3-3-3-|-0-0-0-0-0-0-0-0--3-3-3-3-3-3-3-3|
B-1-1-1-1-1-1-1-1-|-1-1-1-1-1-1-1-1--1-1-1-1-1-1-1-1|
G-0-0-0-0-0-0-0-0-|-2-2-2-2-2-2-2-2--0-0-0-0-0-0-0-0|
D-0-0-0-0-0-0-0-0-|-3-3-3-3-3-3-3-3--0-0-0-0-0-0-0-0|
A-----------------|-3-3-3-3-3-3-3-3-----------------|
E-3-3-3-3-3-3-3-3-|-1-1-1-1-1-1-1-1--3-3-3-3-3-3-3-3|

       For He has,  He has been good to me
e--0-0-0-0-0-0-0-0--3-3-3-3-3-3-3-3--|
B--1-1-1-1-1-1-1-1--1-1-1-1-1-1-1-1--|
G--2-2-2-2-2-2-2-2--0-0-0-0-0-0-0-0--|
D--3-3-3-3-3-3-3-3--0-0-0-0-0-0-0-0--|
A--3-3-3-3-3-3-3-3-------------------|
E--1-1-1-1-1-1-1-1--3-3-3-3-3-3-3-3--|

Chorus 4 times

Then end on: e-----|
             B--3--|
             G--5--|
             D--5--|
             A-----|
             E--5--|
Related for Psalm 13 tab