Song name
# A B C D E F G H I J K L M N O P Q R S T U V W X Y Z

Shane Gibson - Emo Village Pillage tab

Shane Gibson's website: http://www.shaneguitar.com/
======================================================
Piece: Emo Village Pillage (intro only)
By: Shane Gibson

~160BPM

Intro
Repeat 6 times
32nd notes in 4/4 - circular sweeps

e|--------14-14-------------14-14-------------14-14-------------14-14-------|
B|------14-----14---------14-----14---------15-----15---------15-----15-----|
G|----15---------15-----15---------15-----16---------16-----16---------16---|
D|--16-------------16-16-------------16-17-------------17-17-------------17-|
A|--------------------------------------------------------------------------|
E|--------------------------------------------------------------------------|

e|--------12-12-------------12-12-------------17-17-------------17-17-------|
B|------12-----12---------12-----12---------17-----17---------17-----17-----|
G|----13---------13-----13---------13-----18---------18-----18---------18---|
D|--14-------------14-14-------------14-19-------------19-19-------------19-|
A|--------------------------------------------------------------------------|
E|--------------------------------------------------------------------------|

e|--------15-15-------------12-12-------------16-16-------------19-19-------|
B|------15-----15---------12-----12---------14-----14---------17-----17-----|
G|----16---------16-----13---------13-----13---------13-----16---------16---|
D|--17-------------17-14-------------14-11-------------11-14-------------14-|
A|--------------------------------------------------------------------------|
E|--------------------------------------------------------------------------|

e|--------14-14-------------14-14-------------13-13-------------14-14-------|
B|------14-----14---------14-----14---------13-----13---------14-----14-----|
G|----15---------15-----15---------15-----14---------14-----15---------15---|
D|--16-------------16-16-------------16-15-------------15-16-------------16-|
A|--------------------------------------------------------------------------|
E|--------------------------------------------------------------------------|
Tap to rate this tab
# A B C D E F G H I J K L M N O P Q R S T U V W X Y Z