Song name
# A B C D E F G H I J K L M N O P Q R S T U V W X Y Z

Shane Holden - Tall Ships tab

Track: Tall Ships
Artist: Shane Holden
This is a great song there are no vocals and its really mellow,? I think its in 6/8 time,
and its fantastic 2 sit back and play at d?end of d?day

 

Tune your guitar deely to g d f# b d

D|----O----------10----8--7h9-------|----0--------------10----8--7--7----|
B|----O----------10----8--7-----7---|----0--------------10----8--7--9----|
F#|---O----------10----8--7-----7---|----0--------------10----8--7--7----|
D|----O----------10----8--7---------|----0--------------10----8--7--7----|
G|----O----------10----8--7---------|----0--------------10----8--7--7----|
D|----O----------10----8--7---------|----0--------------10----8--7--x----|

At this part place your fingers lightly over the strings and play sharply
through them as harmonics


D|----12-----7--5-7-7-------5-----------|play this part four times
B|----12-----7--5-7---7--------5--------|
F#|---12-----7--5-7-----7--------5------|
D|----12-----7--5-7-------7--------5----|
G|----x------x--x-x---------------------|
D|----x------x--x-x---------------------|

 

D|---12-----12---11-----11---9-----9----7-----7---5-----4----2-----4----5-------|
B|------0-----------0---------0----------0---------0-----0-----0----0-----0-----|
F#|--------0----------0---------0----------0---------0-----0-----0----0----0----|
D|------------------------------------------------------------------------------|
G|------------------------------------------------------------------------------|
D| -----------------------------------------------------------------------------|

 

D|---12-----12---11-----11---9-----9----7-----7---5-----4----2-----4----3-------|
B|------0-----------0----------0----------0---------0-----0-----0----0-----0----|
F#|-------0-----------0----------0----------0---------0-----0-----0----0----0---|
D|------------------------------------------------------------------------------|
G|------------------------------------------------------------------------------|
D| -----------------------------------------------------------------------------|

 

D|---3-------3---------3--------5------4------4-----4------4-------4------|
B|------0-------0--------0-------0------0-------0-------0-----0-----------|
F#|-------0--------0-------0-------0------0-------0-------0------0--------|
D|------------------------------------------------------------------------|
G|------------------------------------------------------------------------|
D| -----------------------------------------------------------------------|
 
Tap to rate this tab
# A B C D E F G H I J K L M N O P Q R S T U V W X Y Z