Guitaretab - guitar tabs
Song name
# A B C D E F G H I J K L M N O P Q R S T U V W X Y Z

Shane Mack - More Than This tab

I haven't seen any tabs for Shane Mack
(http://www.myspace.com/shanemackmusic) 
as of yet so i decided i would do my best 
to write the tabs for the song 

"More Than This"



|-------0---------0----------------0---------0-------------------|
|----3--3------3--3------3------3--3------3--3------3------------|
|-5---------5---------5------4---------4---------4---------------|
|----------------------------------------------------------------|
|----------------------------------------------------------------|
|----------------------------------------------------------------|

[ Tab from: http://www.guitaretab.com/s/shane-mack/184818.html ]
|-------0---------0----------------0---------0-------------------|
|----3--3------3--3------3------3--3------3--3------3------------|
|-2---------2---------2------2---------2---------2---------------|
|----------------------------------------------------------------|
|----------------------------------------------------------------|
|----------------------------------------------------------------|
Repeat that through the whole song^^^
 
after the 5th time playing that guitar2 will come in....
|----------------------------------------------------------------|
|----------------------------------------------------------------|
|----------------------------------------------------------------|
|-3------3/5------5/7------7-7-----7---3------3/5------5---------|
|-----3--------5--------7-------7----------3--------5------------|
|----------------------------------------------------------------|
its played once through then goes back to Just guitar1 and repeats 
the 1st riff 




Over all its a pretty easy song, very repetitive but nice.
incase you wanted'em here are the lyrics that go with it...
 


I've burned a hole in, in the map I made
And I'm not sure what I missed
And I just make the same mistakes
Can I be more than this?

If this is all, if this is all we ever were
At least I loved enough to hurt
Enough to hurt

I played a fool, yeah I played a losing game
And let go of my innocence
And I don't know, I'll never be the same
Can I just be more than this? more than this?

If this is all, if this is all we ever were
At least I loved enough to hurt
Enough to hurt

I was standing in the rain, had my face in the mirror
And made nothing into bliss
And I found losing was just a trend
Yeah is there more than this?
Related for More Than This tab