Song name
# A B C D E F G H I J K L M N O P Q R S T U V W X Y Z

Shane Piasecki - Sweetest Thing tab

okayy so i thought id tab this awesome song so hope you guys enjoy ;P
there might be parts that arent really in the song or yeah,
cos i just added them in,like more bass notes just to make the song more fun to play.
have any questions or stuff, e-mail me globe_0293@hotmail.com
Ciao!!

X = Tap
/ = Slide
H = Hammer-on
P = Pull-off

CAPO 1st !

Intro/Verse 1 :
E|------x----x--------x----x--------x------x-----------x-----|
B|-0-1--x-3--x---0-1--x-3--x--------x------x-----------x-----|
G|-0-0--x-0--x---0-0--x-0--x-----0--x-0----x-0------0--x-0---|
D|---0--x-0--x-----0--x-0--x-----4--x-4h5--x-0------0--x-5---|
A|------x----x--------x----x--------x------x-----------x-----|
E|-3----x-3--x-0-3----x-3--x-0-0-0--x-0----x-0--0-0-0--x-0---|

E|--------x------x----------x------x----------x------x---------x------x-|
B|-----1--x-0h1--x-------1--x-0----x----------x------x------1--x-0----x-|
G|---0-0--x-0----x-------0--x-0-0--x-------2--x-0-2--x----0-0--x-0-0--x-|
D|-----0--x------x-----0----x---0--x-----0-0--x-0-0--x---------x---0--x-|
A|-3------x-3----x-0-3------x-3----x----------x------x--0-3----x-3----x-|
E|--------x------x----------x------x-0-2------x-2----x---------x------x-|

Verse 2 :
E|--------x----x--------x------x--------x----------x-----x-|
B|---0-1--x-3--x---0-1--x-0----x--------x----------x-----x-|
G|---0-0--x-0--x---0-0--x-0-0--x-0------x-------0--x-0---x-|
D|-----0--x-0--x--------x---0--x-4h5-5--x-----4-4--x-5---x-|
A|--------x----x--------x------x--------x----------x-----x-|
E|-0-3----x-3--x-0-3----x-3----x-0------x-0-0------x-0---x-|

E|---------x-------x----x---------x----------x----x----------x------x-|
B|------1--x-1--1--x-1--x-0h1p1---x----------x----x-------1--x-0-3--x-|
G|----0-0--x-0--0--x-0--x-0-----0-x-------2--x-2--x-----0-0--x-0-0--x-|
D|---------x----0--x----x-------0-x-----0-0--x-0--x----------x------x-|
A|-0-3-----x-3-----x-3--x-3-------x----------x----x-0-3------x-3----x-|
E|---------x-------x----x---------x-0-2------x-0--x----------x------x-|

Chorus 1 :
E|----------x--------x----------x--------x---------x-------x----------x-|
B|---0---1--x-0------x---0---1--x-0------x---------x-------x----------x-|
G|---0---0--x-0---0--x---0---0--x-0---0--x-0----0--x----0--x-0-----0--x-|
D|-----0-0--x-----0--x-----0-0--x-----0--x-0----0--x-4h5---x-0-----0--x-|
A|----------x--------x----------x--------x---------x-------x----------x-|
E|-0-3------x-3-3----x-0-3------x-3-3----x---0--0--x-0-----x-0-0-0-0--x-|

E|--------x----------x----------x----------x--------x----------x----x-|
B|--------x-------1--x-0h1p1----x-------1--x-0h1-3--x----------x----x-|
G|--------x-----0-0--x-------0--x-----0-0--x-----0--x-------2--x-2--x-|
D|-4h5p4--x----------x-------0--x----------x--------x-----0-0--x-0--x-|
A|--------x-0-3------x-3--------x-0-3------x-3------x----------x----x-|
E|-0------x----------x----------x----------x--------x-0-2------x-0--x-|

E|----------x----x-|
B|-------1--x-0--x-|
G|-----0-0--x-0--x-|
D|----------x----x-|
A|-0-3------x-3--x-|
E|----------x----x-|

Bridge 1 :
E|-----------x------x---3---2--x-0------x------------x------x-----------x---|
B|---0----1--x-3----x---0---0--x-0---3--x------------x-0----x-----------x---|
G|---0----0--x-0-0--x-----0----x---0-0--x-0-0--------x-0-0--x-0-0-------x---|
D|-----0--0--x-0-0--x-0-0------x-0------x-0-4h5p4-0--x---0--x-0-4h5p4-0-x-4-|
A|-----------x-2----x----------x--------x------------x------x-----------x---|
E|-0-3-------x------x----------x--------x---0--------x-0----x---0-------x-2-|

Verse 3 :
E|----------x------x--------x------x----------x---------x-|
B|---0---1--x-0----x-0---1--x-0----x----------x---------x-|
G|---0---0--x-0-0--x-0---0--x-0-0--x-------0--x-0-------x-|
D|-----0-0--x---0--x---0-0--x---0--x-----4-4--x-4h5--7--x-|
A|----------x------x--------x------x----------x---------x-|
E|-0-3------x-3----x-3------x-3----x-0-0------x-0----0--x-|

E|-------x------x--------x------x--------x----x------------x----|
B|-------x------x-----1--x-0-1--x-1h3-3--x-3--x------------x-1--|
G|-0--0--x-0----x---0-0--x-0-0--x-0---0--x-0--x-------2-2--x-0--|
D|-0--0--x-4h5--x--------x------x--------x----x-----0-0-0--x----|
A|-------x------x-3------x-3----x-3------x-3--x------------x-3--|
E|--0-0--x-0----x--------x------x--------x----x-0-2-----2--x----| pause..

Chorus 2:
E|--------x--------x----------x----x--------x--------x----x--------x-------x-|
B|-0---0--x-0h1----x---0---0--x-0--x--------x--------x----x--------x-------x-|
G|-0---0--x-0---0--x---0---0--x-0--x-----0--x-0---2--x-0--x-----0--x-0---2-x-|
D|---0-0--x-----0--x-----0-0--x----x-----4--x-5---0--x-0--x---4-4--x-5---0-x-|
A|--------x--------x----------x----x--------x--------x----x--------x-------x-|
E|-3------x-3------x-0-3------x-3--x-0-0----x-0-0-0--x-0--x-0------x-0-0-0-x-|

E|--------x------x----------x------x----------x------x----------x--------x-|
B|-----1--x-1-3--x-------1--x-1-3--x----------x------x-------1--x-1---3--x-|
G|---0-0--x-0-0--x-----0-0--x-0-0--x-------0--x-2-0--x-----0-0--x-0-0-0--x-|
D|--------x---0--x----------x------x-----0-0--x-0-0--x----------x-----0--x-|
A|-3------x-3----x-3-3------x-3----x----------x------x-0-3------x-3------x-|
E|--------x------x----------x------x-0-2------x-2----x----------x--------x-|

Chorus 3 :
E|----------x-------x----------x----x--------x--------x----------x-------x-|
B|---0---0--x-0h1---x---0---1--x-0--x--------x--------x----------x-------x-|
G|---0---0--x-0--0--x---0---0--x-0--x-----0--x-0---2--x-0-----0--x-0--2--x-|
D|-----0----x----0--x-----0----x----x-----5--x-5---0--x-0---5-5--x-5--0--x-|
A|----------x-------x----------x----x--------x--------x----------x-------x-|
E|-0-3------x-3-----x-0-3------x-3--x-0-0----x-0-0----x-0-0------x-0-0---x-|

E|----------x------x--------x-------x-|
B|----------x------x-----1--x-1--3--x-|
G|-------0--x-2-0--x---0-0--x-0--0--x-|
D|-----0-0--x-0-0--x--------x-------x-|
A|----------x------x-2------x-3-----x-|
E|-0-2------x-2----x--------x-------x-|

Bridge 2 :
E|---------x----x----------x----x--------x------x-----------x----------x-|
B|---------x----x----------x----x-----1--x-0-1--x----1h3-1--x-0h1p0----x-|
G|-0----0--x-0--x-------2--x-2--x---0-0--x-0-0--x----0---0--x-0-----0--x-|
D|-4--4-4--x-5--x-----0-0--x-0--x--------x------x-----------x-------0--x-|
A|---------x----x----------x----x-3------x-3----x-3-3-------x-3--------x-|
E|---0-----x-0--x-0-2------x-2--x--------x------x-----------x----------x-|

E|---------x--------x--------x--------x----------x-------x-|
B|---------x--------x--------x-----0--x---1---1--x-0--3--x-|
G|------0--x-0---2--x-----0--x-2---2--x---0-0-0--x-0--0--x-|
D|----4-4--x-5---0--x---4-4--x-0------x----------x-------x-|
A|-0-------x--------x--------x---0----x-0-3------x---3---x-|
E|--0------x-0-0----x-0-2-2--x-2------x----------x-------x-|

E|----------x------x--------x--------x-|
B|----------x------x--------x-----0--x-|
G|-------2--x-0-2--x---2-2--x-0---0--x-|
D|-----0-0--x-0-0--x---0-0--x-0---0--x-|
A|----------x------x--------x--------x-|
E|-0-2------x-2----x-0-2----x-2-0----x-|

Solo!! :

E|-----------x--------x---3----2--x-0------x----------x------x-|
B|---0----1--x-3------x---3----3--x-3---3--x----------x------x-|
G|---0----0--x-0---0--x---0----0--x-0---0--x-0-----0--x-0----x-|
D|-----0--0--x-0---0--x-----0-----x-----0--x-0---4-4--x-5-0--x-|
A|-----------x--------x-----------x--------x----------x---0--x-|
E|-0-3-------x-3-3----x---3-------x-3-3----x---0------x-0----x-|

E|------------x-------x----------x------x-------x---------x-|
B|------------x-------x-------1--x-0-1--x---3-1-x-0h1p1---x-|
G|-0-------0--x-2-----x-----0-0--x-0-0--x---0-0-x-0-----0-x-|
D|-0-4h5p4-0--x-0--4--x-------0--x------x-------x-------0-x-|
A|------------x----0--x-0-3------x-3----x-3---3-x-3-------x-|
E|-0-0--------x-0-----x----------x------x-------x---------x-|

E|--------x------x---------------x-|
B|--------x------x-----------/3--x-|
G|-----0--x-2-0--x--------0--/0--x-|
D|---4-4--x-0-0--x---/2-2----/4--x-|
A|--------x---0--x-0-/3------/5--x-|
E|-0-2----x-2----x---------------x-|

Chorus 4 :
E|--------x--------x-----------x--------x--------x--------x--------x------x-|
B|---0-0--x-0h1----x---0----0--x-0------x--------x--------x--------x------x-|
G|---0-0--x-----0--x---0----0--x-0---0--x-----0--x-0---0--x---0-0--x-0-2--x-|
D|-----0--x-----0--x-----0-----x-----0--x---4-4--x-5---5--x---4-4--x-5-0--x-|
A|--------x--------x-----------x--------x--------x--------x--------x------x-|
E|-0-3----x-3------x-0-3-------x-3-3----x-0-0----x-0-0----x-0-0----x-0----x-|

E|----------x------x----------x------x----------x----x--------x------x-|
B|-------1--x-1-3--x-------1--x-1-3--x----------x----x-----1--x-1-3--x-|
G|-----0-0--x-0-0--x-----0-0--x-0-0--x-------2--x-2--x---0-0--x-0-0--x-|
D|----------x------x----------x------x-----0-0--x-0--x--------x------x-|
A|-0-3------x-3----x-3-3------x-3----x----------x----x-3------x-3----x-|
E|----------x------x----------x------x-0-2------x-2--x--------x------x-|

Chorus 5 / Outro 1 :
E|---------x------x--------x---------x----------x------x----------x------x-|
B|---0--0--x-0h1--x---0-0--x-0h1-----x----------x------x----------x------x-|
G|---0--0--x-0----x---0-0--x-0----0--x-------0--x-0-2--x-------0--x-0-2--x-|
D|---------x------x-----0--x------0--x-----4-4--x-5-0--x-----4-4--x-5-0--x-|
A|---------x------x--------x---------x----------x------x----------x------x-|
E|-0-3-----x-3----x-0-3----x-3-------x-0-0------x-0----x-0-0------x-0----x-|

E|----------x------x----------x------x-----------x----x----------x------x-|
B|-------1--x-1-3--x-------1--x-1-3--x-----------x----x-------1--x-0----x-|
G|-----0-0--x-0-0--x-----0-0--x-0-0--x--------2--x-2--x-----0-0--x-0-0--x-|
D|----------x---0--x----------x------x------0-0--x-0--x----------x---0--x-|
A|-0-3------x-3----x-3-3------x-3----x-----------x----x-0-3------x-3----x-|
E|----------x------x----------x------x-0-2-------x-2--x----------x------x-|

E|----------x----x------x----------x----------x-|
B|----------x----x-0----x----------x-------1--x-|
G|-------0--x-2--x-0-0--x-------2--x-2-----0--x-|
D|-----0-0--x-0--x---0--x-----0-0--x-0-----0--x-|
A|----------x----x-3----x----------x-------3--x-|
E|-0-2------x-2--x------x-0-2------x-2--------x-|

Outro 2 :
E|-----------x--------x-----------x------x----------x--------x---------x---x-|
B|---0----1--x-3------x---0----1--x-0----x----------x--------x---------x---x-|
G|---0----0--x-0---0--x---0----0--x-0-0--x-------0--x-0---0--x-------0-x-0-x-|
D|-----0--0--x---0-0--x-----0-----x---0--x-----4-4--x-5---5--x-----4-4-x-5-x-|
A|-----------x--------x-----------x------x----------x--------x---------x---x-|
E|-0-3-------x-3------x-0-3-------x-3----x-0-0------x-0-0----x-0-0-----x-0-x-|

E|----------x------x-----------x----------x--------x----x-----------------3-|
B|--------1-x-0-1--x---1h3--1--x-0h1p0----x--------x----x-1---0h1-0---0---3-|
G|-----0-0--x-0-0--x---0----0--x-0-----0--x-----0--x-2--x-0---0----0--0---0-|
D|----------x------x-----------x-------0--x---4-4--x-0--x---------------0-0-|
A|-0-3------x-3----x-0-3-------x-3--------x--------x----x-3---------------2-|
E|----------x------x-----------x----------x-0------x-2--x-----3------3----3-|


enjoyyy =P
Tap to rate this tab
# A B C D E F G H I J K L M N O P Q R S T U V W X Y Z