Song name
# A B C D E F G H I J K L M N O P Q R S T U V W X Y Z

Shane Piasecki - My Two Cents tab

Hey guys this is my very first tab but this is how I've been playing it and it sounds 
right so hopefully this helps you guys get it too. I love this song it means a lot to me. 
Anyways enough talk, here it is..

My Two Cents by Shane Piasecki

HALF-STEP DOWN

There's two parts... The verse and the chorus.. That's it :)

Verse:

|------------------------------|
|------3----3--------3----3----|
|------2----2--------2----2----|
|------------------------------|
|--0/2----0--------------------|
|----------------0/2----3------|


Chorus:

|----------------------------|
|----3--2-3--------3----3----|
|----2--2-2--------2----2----|
|---------------------0------|
|--------------0/2-----------|
|--3-------------------------|


Its pretty self explanatory if you listen to the song but here's a full guide if you 
feel you need a little more help...


Intro:

|------------------------------|
|------3----3--------3----3----|
|------2----2--------2----2----|
|------------------------------|
|--0/2----0--------------------|
|----------------0/2----3------|

Throwing pennies in a wishing well
And I think to myself
If only you were here right now
I try to make believe
Pretend you're here with me
If things ain't what they seem
Well baby we'll work it out

Chorus:

|----------------------------|
|----3--2-3--------3----3----|
|----2--2-2--------2----2----|
|---------------------0------|
|--------------0/2-----------|
|--3-------------------------|

So come back anytime you're ready
Cause I'm ready to be with you

I remember when you said
If it ain't broke don't fix it
If it ain't gone don't miss it
If you believe it's love then don't let them change your mind
Try to find a deeper reason
Time will change to another season
Oh, oh, oh and on and on the story goes

Verse:

|------------------------------|
|------3----3--------3----3----|
|------2----2--------2----2----|
|------------------------------|
|--0/2----0--------------------|
|----------------0/2----3------|

I go to the place where we used to meet
Do you ever go there too, do you ever think of me?
Oh we met on a hot summer day
And it started to rain
Water fell from the sky and down your face

Chorus:

|----------------------------|
|----3--2-3--------3----3----|
|----2--2-2--------2----2----|
|---------------------0------|
|--------------0/2-----------|
|--3-------------------------|

So come back anytime you're ready
Cause I'm ready to be with you

I remember when you said
If it ain't broke don't fix it
If it ain't gone don't miss it
If you believe it's love then don't let them change your mind
Try to find a deeper reason
Time will change to another season
Oh, oh, oh and on and on the story goes
On and on the story goes

If it ain't broke don't fix it
If it ain't gone don't miss it
If you believe it's love then don't let them change your mind
Try to find a deeper reason
Time will change to another season
Oh, oh, oh and on and on the story goes
On and on the story goes




Hope that's easy enough. Listen to the song, you'll get it :)


Have fun

Tabbed by Sam B






/\   = hammer on/off
Tap to rate this tab
 
# A B C D E F G H I J K L M N O P Q R S T U V W X Y Z