Song name
# A B C D E F G H I J K L M N O P Q R S T U V W X Y Z

Shane Ward - No Promises Acoustic tab

This is the acoustic version of Shane Ward's No Promises.
Play the chords softly in the first chorus. Listen to the song to get the timing right.

Intro

|---------------------------------------------|
|-------------------5---------------------4---|
|-------1---------6-6----------4--------4-4---|
|-----2-2-------6------------6-6------4-------|
|---2---------4-------4----6--------2-------2-|
|-0-------0--------------4-------4------------|

Vers 1
 E            C#m        G#m        B
|---------------------------------------------|
|-------------------5---------------------4---|
|-------1---------6-6----------4--------4-4---|
|-----2-2-------6------------6-6------4-------|
|---2---------4-------4----6--------2-------2-|
|-0-------0--------------4-------4------------|
  
 E            C#m         G#m       A
|---------------------------------------------|
|-------------------5---------------------2---|
|-------1---------6-6----------4--------2-2---|
|-----2-2-------6------------6-6------2-------|
|---2---------4-------4----6--------0-------0-|
|-0-------0--------------4-------4------------|
 G#m       A        B
|---------------------------|
|----------------2--------4-|
|-------4------2--------4---|
|-----6-6----2--------4-----|
|---6------0--------2-------|
|-4-------------------------|

Chorus

C#m               A          B                     G#m                  
I don't wanna run away, baby you're the one I need tonight,
C#m  A    B
No   promises.
      C#m                    B                  C#m          A     C#m B
Baby, now I need to hold you tight, I just wanna die in your arms

Here tonight

Vers 2

E                     C#m             G#m            B
Hey baby, when we are together, doing things that we love.
     E                                   C#m             G#m
Everytime you're near I feel like I'm in heaven, feeling high
        A                   G#m 
I don't want to let go, girl.
       A               B
I just need you you to know girl.

Chorus

C#m               A          B                     G#m                  
I don't wanna run away, baby you're the one I need tonight,
C#m  A    B
No   promises.
      C#m                    B                  C#m          A     C#m B
Baby, now I need to hold you tight, I just wanna die in your arms

Here tonight



A                         E                            C#m
I don't want to run away, I want to stay forever, thru Time and Time..
A     B 
No promises

C#m               A              B       G#m
I don't wanna run away, I don't wanna be alone
C#m  A   B
No   Promises


      C#m                    B     C#m                 A
Baby, now I need to hold you tight, now and forever my love

C  D
No promises

Outro chorus

Em                C          D                     Bm
I don't wanna run away, baby you're the one I need tonight,
Em C   D
No promises.
      Em                     D                   Em          C
Baby, now I need to hold you tight, I just wanna die in your arms
x2

     G
Here tonight

Good Luck/ G-Brand
Tap to rate this tab
# A B C D E F G H I J K L M N O P Q R S T U V W X Y Z