Song name
# A B C D E F G H I J K L M N O P Q R S T U V W X Y Z

Shanghai Sexual - Work With Me tab

Shanghai Sexual
Work with Me


Drop "d" tuning

e|---------------------------------------------------|
B|---------------------------------------------------|
G|---------------------------------------------------|
D|----------8----------------------------------------|   x4
A|--6-6-6---6---6-6-6-6-6-6---9-9-9---8-8-8-8h9p8----|
D|--6-6-6---6---6-6-6-6-6-6---9-9-9---8-8-8-8h9p8----|


                     			       __
e|-------------------------------------------    |
B|-------------------------------------------    |
G|-------------------------------------------    |
D|-------------------------------------------    |
A|--6xx-6xx-6xx-6xx---2-2-2-2---4-4-4-4-4----    |
D|--6xx-6xx-6xx-6xx---2-2-2-2---4-4-4-4-4----    |
					         |  x 2
e|-------------------------------------------    |
B|-------------------------------------------    |
G|-------------------------------------------    |
D|-------------------------------------------    |
A|--6xx-6xx-6xx-6xx---2-2-2-2---8-8h9-9p8----    |
D|--6xx-6xx-6xx-6xx---2-2-2-2---8-8h9-9p8----    |
                                               __|


e|------------------------------------------------------------------------------|
B|------------------------------------------------------------------------------|
G|------------------------------------------------------------------------------|
D|-----6---6h8-6------------4---4h6-4------------2---2h4-2------9-8-6-8-6-------|   x 2
A|---6--------------------4--------------------2--------------------------9-----|
D|-6-----6-------6------4-----4-------4------2-----2-------2--------------------|
Tap to rate this tab
# A B C D E F G H I J K L M N O P Q R S T U V W X Y Z