Song name
# A B C D E F G H I J K L M N O P Q R S T U V W X Y Z

Shania Twain - Any Man Of Mine tab

SONG NAME - Any Man of Mine (Intro)
Tabbed by: D.Busse
Email: Dbusse7_06@yahoo.com


e|---------------------------------------------------------------|
B|----2h4----2--1--2--1----------------------------1-------------|
G|-----------------------3--3----1--3--1--3--1--3-----3--3-------|
D|---------------------------------------------------------------|
A|---------------------------------------------------------------|
E|---------------------------------------------------------------|

e|---------------------------------------------------------------|
B|---4--4--4--2--1--2--1-----------------------------1-----------|
G|------------------------3--3-----1--3--1--3--1--3-----3--3-----|
D|---------------------------------------------------------------|
A|---------------------------------------------------------------|
E|---------------------------------------------------------------|

e|---------------------------------------------------------------|
B|---4--4--4--2--1--2--1-----------------------------------------|
G|------------------------3--3----------------------1------------|
D|-------------------------------1--3--1--3---1--3-----3--1------|
A|---------------------------------------------------------------|
E|---------------------------------------------------------------|

h hammer-on
Tap to rate this tab
# A B C D E F G H I J K L M N O P Q R S T U V W X Y Z