Song name
# A B C D E F G H I J K L M N O P Q R S T U V W X Y Z

Shania Twain - That Dont Impress Me Much tab

SHINIA TWAIN

e|----------------------------------------| Follow this quickly into the
B|----------------------------------------| next part.... it starts almost
G|----15v--14h15v--14h15v--14h15v~--------|  right after it...
D|----------------------------------------|
A|----------------------------------------|
E|----------------------------------------|

Second part
This is the second part of the introduction right before the singing starts... 
e|----------------------------------------| 
B|----------------------------------------| 
G|----------------------------------------|
D|----------4~---3------------------------|
A|----4--6----------6-4-6-8~--------------|
E|----------------------------------------|

e|----------------------------------------| 
B|----------------------------------------| 
G|----------------------------------------|
D|----------4~---3------------------------|
A|----4--6----------6-4-8-6~--------------|
E|----------------------------------------|
Tap to rate this tab
# A B C D E F G H I J K L M N O P Q R S T U V W X Y Z