Song name
# A B C D E F G H I J K L M N O P Q R S T U V W X Y Z

Shania Twain - Today Is Your Day chords

Highlighted       Show chord diagrams
I recommend just using downward strokes for facility of playing, this is my first 
tab/chords so if you have any corrections let me know! :) Enjoy!

(You got what it takes you can win...)

G                               D
You got what it takes you can win
C                    G
Today is your day to begin
G                                D
Don’t give up here, don't you quit
C                          G
The moment is now, this is it
G                                D
I know that you can, then you will
C                     G
Get to the top of the hill
G                          D
Part of the fun is the climb
C                           G
You just gotta make up your mind

Em                   D
That today is your day
C                             G
And nothing can stand in your way
Em              D
Today is your day
C                       G
Everything’s goin’ your way
Em           D            C            G
Today, yeah, today, yeah, today, yeah, today, yeah

e|-----------------------------------------------------------------------------|
B|-------0--3--0-----0-----------0--3--0---------------------------------------|
G|-0--2-----------2-----0--0--2-----------2--0---------------------------------|
D|-----------------------------------------------------------------------------|
A|-----------------------------------------------------------------------------|
E|-----------------------------------------------------------------------------|


e|-----------------------------------------------------------------------------|
B|-------0--3--0-----0-----------0--3--0---------------------------------------|
G|-0--2-----------2-----0--0--2-----------2--0---------------------------------|
D|-----------------------------------------------------------------------------|
A|-----------------------------------------------------------------------------|
E|-----------------------------------------------------------------------------|

G                               D
When somebody throws sticks and stones
C                           G
All they can break are your bones
G                         D
And life's gonna kick you around
C                             G
Then kick you again when your down

Em                   D
But today is your day
C                             G
And nothing can stand in your way
Em              D
Today is your day
C                       G
Everything’s goin’ your way
Em                      D      C             G
Today, c'mon do it now, today, today, do it, today

G
Life's goin' to kick you
D
It's goin' to kick you around
C                      G
It's goin' to kick you down

G                  D
Dust yourself off, no regrets
C                     G
This is as good as it gets
G                  D
Don't expect more, or less
C                            G
Just go out and give it your best

Em                   D
Today is your day
C                             G
And nothing can stand in your way
Em              D
Today is your day
C                       G
Everything’s goin’ your way
Em                      D      C             G
Today, c'mon do it now, today, today, do it, today

Em     D      C      G
Today, today, today, today

Today is your day....
Tap to rate this tab
# A B C D E F G H I J K L M N O P Q R S T U V W X Y Z