Song name
# A B C D E F G H I J K L M N O P Q R S T U V W X Y Z

Shania Twain - Youre Still The One tab

-------------------------------------------------------------------------------
                             Your'r Still the One - Shania Twain
-------------------------------------------------------------------------------
Tabbed by:Randy Andal Ante
E-mail:barakotayo@gmail.com
 *** hope you like it ***

Tuning: Standard


 verse
e|--------0----------0--------------------------0---2---0-------0-------------|
B|------3-------3--------3---0------0---0---3---------------3-----------------|
G|----2------2-----2---2---------0--------------------------------------------|
D|--0-------------------------------------------------------------------------|
A|-------------------------------2--------------------------------------------|
E|-------------------------------3--------------------------------------------|

e|---------------------------------------2---0--------0-------------------------|
B|--3---------3--5h--3---0---0---0---3------------3-----------------------------|
G|-----2---4h-------------------------------------------------------------------|
D|------------------------------------------------------------------------------|
A|---------------------------2--------------------------------------------------|
E|---------------------------3--------------------------------------------------|


  bridge
e|-----5---------------------------0---2----------------------------------------|
B|---------3------5---3----0---3-----------0---3---0-----------------3----------|
G|--0-------------------------------------------------2---0--------------2------|
D|-------------0----------------------------------------------2---4-------------|
A|------------------------------------------------------------------------------|
E|------------------------------------------------------------------------------|

e|---------------------------------------------------------------------------|
B|-------5----2~-----------------------------------------0--(2)--------------|
G|--4-----------------------------7~-----------9p---6----0--(2)--------------|
D|----------------9---7---5---4--------7---5-------------0--(2)--------------|
A|---------------------------------------------------------------------------|
E|---------------------------------------------------------------------------|
                                                               your'e still the one


     chorus
e|-----2--0----------------------------------------------------------------------|
B|-----------3--0--0-----3------------8h--7h-------------------------------------|
G|--2------------------------------7-------------7----------11p------------------|
D|--0-----------------------------------------9-----9/--11-------12--------------|
A|--------------------------2--0-------------------------------------------------|
E|--0-----------------3----------------------------------------------------------|


e|-----2--0--------------------------------------------------------2~--------------|
B|-----------3--0--0-----3------------8h--7h-----------------------3~--------------|
G|--2------------------------------7-------------7-----------------2~--------------|
D|--0-----------------------------------------9-----9/--11--6---0------------------|
A|--------------------------2--0---------------------------------------------------|
E|--0-----------------3------------------------------------------------------------|


will work on the intro and solo and update later on...





************************************

| /   slide up
| \   slide down
| h   hammer-on
| p   pull-off
| ~   vibrato
| +   harmonic
| x   Mute note
| b   Bend
| pb  Pre-bend
| br  Bend release
| pbr Pre-bend release
| brb Bend release bend

************************************
Tap to rate this tab
# A B C D E F G H I J K L M N O P Q R S T U V W X Y Z