Song name
# A B C D E F G H I J K L M N O P Q R S T U V W X Y Z

Shania Twain - From This Moment tab

this is a VOCAL tab. i figured out how to make my guitar sing the first verse id like to 
it here so..

legend:
s - slide
h - hammer on
p - pull off

Standard Tuning:

e|----------------------------------------------------|
B|----------------------------------------------------|
G|-------4s5------7----------7---5---4----------------|
D|--------------------5-------------------7-----------|
A|----------------------------------------------------|
E|----------------------------------------------------|

        From this moment..  life has begun

e|----------------------------------------------------|
B|----------------------------------------------------|
G|--------4-----------7s9----7--9---7--9s11-----------|
D|------------7----5----------------------------------|
A|----------------------------------------------------|
E|----------------------------------------------------|
        from this moment..  you are the one..

e|----------------------------------------------------|
B|---------------8-------------8----------------------|
G|--------9---11-----------------11-9-7---------------|
D|-------------------10----10------------10-9---------|
A|----------------------------------------------------|
E|----------------------------------------------------|
        right beside you.. is where i belong

e|------------------------------------------------------|
B|------------------------------------------------------|
G|--------7----5-----4----------------------------------|
D|----------------------7---4s5-------------------------|
A|------------------------------------------------------|
E|------------------------------------------------------|
        from this... moment on

so basically this is how the verse go.. for the second verse.. play it 2 frets higher.. 
comments or suggestions just hit me up thanks =]
Tap to rate this tab
 
# A B C D E F G H I J K L M N O P Q R S T U V W X Y Z