Song name
# A B C D E F G H I J K L M N O P Q R S T U V W X Y Z

Shania Twain - Love Gets Me Everytime tab

Intro    the whole song is in drop d
------------------------------------------------------|
------------------------------------------------------|
------------------------------------------------------|
-9-7-9---9-7-9---7-5-7---7----9-7-9---9-7-9---7-5-7---|
-7-7-7---7-7-7---5-5-5---5----7-7-7---7-7-7---5-5-5---|
------------------------------------------------------|

----------------------------------|
----------------------------------|
----------------------------------|
-7-5-7---------0-2-0--------------|
-5-5-5----------------------------|
----------------------2b0---------|
            right as the rythm ends
            guitar 2 does this
verses  + chorus
-----------------------------------------------------|
-----------------------------------------------------|
-----------------------------------------------------|
-9-7-9---9-7-9---7-5-7---7-5-7-----------------------|
-7-7-7---7-7-7---5-5-5---5-5-5-----------------------|
-----------------------------------------------------|
    repeat this over and over through the whole song
at least that is what her
guitar player (Randall Waller) on the DVD's did

--------------------|
--------------------|
--------------------|
--------------------|
--------------------|
-0-2b-2b-2b-2b0-----|
end of verse
Tap to rate this tab
# A B C D E F G H I J K L M N O P Q R S T U V W X Y Z