Song name
# A B C D E F G H I J K L M N O P Q R S T U V W X Y Z

Shania Twain - Rock This Country tab

Intro

----------------|
----------------|
----------------|
-7-7-5-7--------|    do this
-5-5-5-5--------|    7 times
----------------|

Verses

---------------------------------|
---------------------------------|
---------------------------------|
-7-7-5-7-------5-5-3-5-----------|
-5-5-5-5-------3-3-3-3-----------|
---------------------------------|
Repeat each pattern 4 times
through the whole verse

after...we gonna rock
this was as close as i
could get

-8------------|
-8------------|
-5------------|
--------------|
--------------|
--------------|

i think this is done 12 times
the last time she sings this
part it changes to

-9---------|
-9---------|
-6---------|
-----------|
-----------|
-----------|

Chorus

alternate between these
---------------------------------------|
-1---1-----0-----3----3-------0--------|
---0---0------0----2-----2-------0-----|
---------2------------------0----------|
---------------------------------------|
---------------------------------------|

during the fiddle solo

--------------------------------|
--------------------------------|
--------------------------------|
--------------------------------|
----5-5-6-6-7-7-8-8-6-6-5-5-----|
-6-6----------------------------|

----------------------------------|
----------------------------------|
----------------------------------|
----------------------------------|
---------5-5-6-6-7-7-8-8-6-6-5-5--|
-8-8-6-6--------------------------|

---------------------------------|
---------------------------------|
---------------------------------|
---------------------------------|
---------3-3-4-4-5-5-6-6-4-4-3-3-|
-8-8-4-4-------------------------|

----------------------|
----------------------|
----------------------|
----------------------|
----------3-3-4-4-5-5-|
-6-6-4-4--------------|


at...we're pluggin in the power mess around with this figure
------------|
------------|
------------|
-8-8-6-8----|
-6-6-6-6----|
------------|
Tap to rate this tab
# A B C D E F G H I J K L M N O P Q R S T U V W X Y Z