Song name
# A B C D E F G H I J K L M N O P Q R S T U V W X Y Z

Shankar Ehsaan Loy - Zinda tab

INTRO :

Octave Chords

      E   E                     D#  D#                    D   D       D#            D#      D#
E||---X---X---------X---X---|---X---X---------X---X---|---X---X---X---X---|---------X---X---X---||
B||---X---X---------X---X---|---X---X---------X---X---|---X---X---X---X---|---------X---X---X---||
G||---9---9---------X---X---|---8---8---------X---X---|---7---7---X---8---|---------8---X---8---||
D||---X---X---------X---X---|---X---X---------X---X---|---X---X---X---X---|---------X---X---X---||
A||---7---7---------X---X---|---6---6---------X---X---|---5---5---X---6---|---------6---X---6---||
E||---X---X---------X---X---|---X---X---------X---X---|---X---X---X---X---|---------X---X---X---||
.....x4




VERSE :

      E5         E5                 D   D       D#            D#      D#
E||----------|------------------|---X---X---X---X---|---------X---X---X---||
B||----------|------------------|---X---X---X---X---|---------X---X---X---||
G||----------|------------------|---7---7---X---8---|---------8---X---8---||
D||---2------|---2------X---X---|---X---X---X---X---|---------X---X---X---||
A||---2------|---2------X---X---|---5---5---X---6---|---------6---X---6---||
E||---0------|---0------X---X---|---X---X---X---X---|---------X---X---X---||
.....x8




CHORUS :

E5     C5     G5     D5
X      X      X      X
X      X      X      3
X      X      X      2
2      5      X      0
2      3      5      0
0      X      3      X




MAIN RIFF :

*Use a little bit of palm muting

      E5         E5                           F#5      G5  A5
E||----------|------------------|------------------|-----------||
B||----------|------------------|------------------|-----------||
G||----------|------------------|------------------|-------2---||
D||---2------|---2--------------|------------------|-------2---||
A||---2------|---2--------------|--------------4---|---5---0---||
E||---0------|---0------0---0---|---0---0------2---|---3-------||
.....x3


      E5         E5                            E5                 E5
E||----------|------------------|------------------|------------------||
B||----------|------------------|------------------|------------------||
G||----------|------------------|------------------|------------------||
D||---2------|---2--------------|--------------2---|--------------2---||
A||---2------|---2--------------|--------------2---|--------------2---||
E||---0------|---0------0---0---|---0---0------0---|---0---0------0---||




BRIDGE :

E||-----------|--------|----------|-----------||-----------|----------|---------|-----------||
B||-----------|--------|----------|-----------||-----------|----------|---------|-----------||
G||-----------|--------|----------|-----------||-----------|----------|---------|-----------||
D||-2--2------|------2-|------2---|-2--2------||-2--2------|------2-2-|-2---2---|-2--2------||
A||-2--2------|------2-|------2---|-2--2------||-0--0------|------0-0-|-2---0---|-0--0------||
E||-0--0------|------0-|------0---|-0--0------||-0--0------|------0-0-|-0---0---|-0--0------||
.....x2




SOLO :

E||----------------|---------------|---------------|------------||
B||----------------|---------------|---------------|------------||
G||----------------|---------------|---------------|------------||
D||------7--9--10--|--7--9------7--|--9--10--7--9--|------7-----||
A||--10------------|--------10-----|---------------|--10-----7--||
E||----------------|---------------|---------------|------------||

E||----------------|---------------|---------------|------------||
B||----------------|---------------|---------------|------------||
G||----------------|---------------|---------------|---------9--||
D||------7--9--10--|--7--9------7--|--9--10--7--9--|------7-----||
A||--10------------|--------10-----|---------------|--10--------||
E||----------------|---------------|---------------|------------||

E||------------------|------------------|------------------|--------------||
B||----------12--13--|------12----------|--12--13------12--|--------------||
G||--12--14----------|--14------12--14--|----------14------|--12--14------||
D||------------------|------------------|------------------|----------14--||
A||------------------|------------------|------------------|--------------||
E||------------------|------------------|------------------|--------------||

E||------------------|------------------|------------------|--12--------||
B||------------------|------12--13--15--|----------12--13--|------------||
G||--12--14------12--|--14--------------|--12--14----------|------------||
D||----------14------|------------------|------------------|------------||
A||------------------|------------------|------------------|------------||
E||------------------|------------------|------------------|------------||
Tap to rate this tab
# A B C D E F G H I J K L M N O P Q R S T U V W X Y Z