Song name
# A B C D E F G H I J K L M N O P Q R S T U V W X Y Z

Shankar Ehsaan Loy - Maa tab

Hello,

This is my first tab. Please excuse any mistakes.

(A)                                  (B)
E|---------------------------------   ---------------------------------------|
B|--8/10--8------------------------   ----------5-----6--5--6/8--8--6--5--6--|
G|-----------------5--7-----5/7--5-   -------5-----7-------------------------|
D|-----------5--7--------7---------   -5--7----------------------------------|
A|---------------------------------   ---------------------------------------|
E|---------------------------------   ---------------------------------------|


(C)
E|----------------------------5--5--5/8--10b8-----|
B|-----------5-----6--5--6/8----------------------|
G|--------5-----7---------------------------------|
D|--5--7------------------------------------------|

The solo was played this way 2x(A)-->(B)-->(C)

And then Am -> G -> C in one whole major.
Tap to rate this tab
# A B C D E F G H I J K L M N O P Q R S T U V W X Y Z