Shankar Mahadevan - Maa tab

Hi, My First Post.
Honestly i didn't make this one but there wasn't a correct version on ultimate-guitar 
 :)


C-------------F------C---
main kabhi batlata nahin
G--------------F---------------C
par andhere se darta hoon main maa
C---------------F------C
yun to main,dikhlata nahin
G------------F---------------C
teri parwaah karta hoon main maa
------F----------G-----------C
tujhe sab hain pata, hain na maa
------F----------G----------C
tujhe sab hain pata....meri maa

C-----------------F-------C
bheed mein yun na chodo mujhe
G----------------F------------C
ghar laut ke bhi aa naa paoon maa
C------------F-----------C
bhej na itna door mujkko tu
G---------------F------------C
yaad bhi tujhko aa naa paoon maa
----F------G------------C
kya itna bura hoon main maa
----F------G---------------C
kya itna bura ....... meri maa


Solo:

GUITAR LEAD:

/ = Slide
p = Pull
h = Hammer
b = Bend

Line 1

E ----------------------------|
B -8/10-8---------------------|
G -------------5-7----5/7--5--|
D ---------5h7-----7----------|
A ----------------------------|
E ----------------------------|

Line 2 (Same as line 1 except a small downslide from 8th fret which i have indicated 
^^^^)

E --------------------------------|
B -8/10-8^^^^^--------------------|
G -----------------5-7----5/7--5--|
D -------------5h7-----7----------|
A --------------------------------|
E --------------------------------|

Line 3

E -------------------------------|
B -------5---6--5-6-6/8-8/5-5-6--|
G -----5---7---------------------|
D -5h7---------------------------|
A -------------------------------|
E -------------------------------|

Line 4

E -----------------------8----8/10-10b12-8--|
B -------5---6--5-6-8/10---10---------------|
G -----5---7--------------------------------|
D -5h7--------------------------------------|
A ------------------------------------------|
E ------------------------------------------|

( Am   G   C )

Bridge:
C-------------E7--------
jab bhi kabhi papa mujhe
Am--------Ab--------Fm7-------C--
jo zor se jhoola jhulate hain maa
C----------E7------------
meri nazar dhoondhe tujhe
Am---------Ab-------Fm7------C---
sochu yahi tu aa ke thaamegi maa

Repeat chords of first two stanzas

unse main yeh kehta nahin
par main seham jaata hoon maa
chehre pe aana deta nahin
dil hi dil mein ghabraata hoon maa
tujhe sab hai pata hai naa maa
tujhe sab hai pata meri maa

main kabhi batlata nahin
par andhere se darta hoon main maa
yun to main,dikhlata nahin
teri parwaah karta hoon main maa
tujhe sab hain pata, hain na maa
tujhe sab hain pata,,meri maa

Last Riff chords:
[C-Dm7-Em-Dm7-] (x4)
Tap to rate this tab
 
# A B C D E F G H I J K L M N O P Q R S T U V W X Y Z