Song name
# A B C D E F G H I J K L M N O P Q R S T U V W X Y Z

Shannon And The Clams - Blast Me To Bermuda tab

http://www.myspace.com/shannonandtheclams
THIS IS MY FIRST TAB POSTING I HOPE ITS ACCURATE AND IT HELPS IM A BIG FAN SO YEAH GREAT 
 I APPRECIATE ANY CORRECTIONS YOU MIGHT HAVE AND IM SURE EVERYONE ELSE WHO WANTS TO 
THE SONG DOES ALSO................. HAVE FUN!!!!!!!!!!!!!!!!!!!!!!


E|----------------------------------------------------|
B|----------------------------------------------------|
G|----------------------------------------------------|
D|7 77777777777787------------------------------------|
A|7 77777777777787------------------------------------|
E|5 55555555555565------------------------------------|

VERSE
A     A#

basically A a bunch then A# then back  with those interesting little fills Cody does….

E|----------------------------------66666666----------------------------------|
B|----------------------------------66666666----------------------------------|
G|---------4-4---------------------66666666-----------------------------------|
D|----------------------------------------------------------------------------|
A|----------------------------------------------------------------------------|
E|----------------------------------------------------------------------------|

CHORUS
A# B C  B A# B C  B A# B C B A#

E|-----------------------------------------------------------------------|
B|-----------------------------------------------------------------------|
G|-----2-22223----2-22223---2-22223-----2-22223--------------------------|
D|-----------------------------------------------------------------------|
A|-----------------------------------------------------------------------|
E|-----------------------------------------------------------------------|

E|---------65--------5-55553---5-55553-----5-55553---5-6/10-6------------|
B|------6----------------------------------------------------------------|
G|---7-------------------------------------------------------------------|
D|-----------------------------------------------------------------------|
A|-----------------------------------------------------------------------|
E|-----------------------------------------------------------------------|

E|----5-55553---5-55553-----5-55553---5-6/10-6---------------------------|
B|----5-55553---5-55553-----5-55553---5-6/10-6---------------------------|
G|-----------------------------------------------------------------------|
D|-----------------------------------------------------------------------|
A|-----------------------------------------------------------------------|
E|-----------------------------------------------------------------------|


E|-----------------------------------------------------|
B|-----------------------------------------------------|
G|---1/22222---2/33333----3/55555-----5/666666---------|
D|---1/22222---2/33333----3/55555-----5/666666---------|
A|-----------------------------------------------------|
E|-----------------------------------------------------|

THEN THE OTHER PARTS AGAIN I DID THE BEST I COULD CODYS A VERY COOL GUITAR PLAYER  I 
HIS TONE A BUNCH HE MADE HIS AMP AND HIS OWN EFFECTS ….PRETTY ROCKIN BAND ALL IN ALL HOPE 
HELPS YOU OTHER FANS

HAPPY PLAYING

PEACE FRIENDS ☺

ANDREW SEBASTIAN ARRIOLA

http://www.myspace.com/shannonandtheclams
Tap to rate this tab
# A B C D E F G H I J K L M N O P Q R S T U V W X Y Z