Song name
# A B C D E F G H I J K L M N O P Q R S T U V W X Y Z

Shannon And The Clams - When Youre On tab

SHANNON AND THE CLAMS
WHEN YOURE ON

THIS SONG KILLS ME LIKE BIG TIME......... FRIGGIN CRUSHES ME EVERYTIME I HEAR IT

INTRO
E|--0~RAKE---------0--------0----------0-----------------------|
B|--2~RAKE---2-------2---------2---------2---------------------|
G|--2~RAKE-----2-------2---------2---------2-------------------|
D|-------------------------------------------------------------|
A|-------------------------------------------------------------|
E|-------------------------------------------------------------|

E|---1-------1--------1-------1---------------------------------|
 B|-----2--------2-------2-------2------------------------------|
G|-------1--------1-------1-------1-----------------------------|
D|--------------------------------------------------------------|
A|--------------------------------------------------------------|
E|--------------------------------------------------------------|

E|---2---------2--------2-------2-----------------------------|
 B|----3----------3--------3-------3--------------------------|
G|-----2----------2---------2------2--------------------------|
D|------------------------------------------------------------|
A|------------------------------------------------------------|
E|------------------------------------------------------------|


E|--4------4------4-------4--------------------------------------|
B|---5------5-------5-------5------------------------------------|
G|----4------4-------4--------4----------------------------------|
D|---------------------------------------------------------------|
A|---------------------------------------------------------------|
E|---------------------------------------------------------------|

HE USES STRING RAKES HERE ............

E|-5------5------4----4-----3------3--------2-------2----2-------------| QUICK SLIDE UP
B|---6------6------5----5-----4------4--------3------------------------|
G|----7------7-------6-----6-----5------5-------4----------------------|
D|---------------------------------------------------------------------|
A|---------------------------------------------------------------------|
E|---------------------------------------------------------------------|


CHORUS

A  C# D E

 THAT QUICK LITTLE SLIDE THING HE DOES IN A LOT OF THEIR SONGS  IS WAY COOL
E|---/12---9----7/5--------------------------- -----------------|
B|--------------------7-----------------------------------------|
G|--------------------------------------------------------------|
D|--------------------------------------------------------------|
A|--------------------------------------------------------------|
E|--------------------------------------------------------------|

END ON AND A


THATS IT FOR NOW

ANDREW SEBASTIAN ARRIOLA

http://www.myspace.com/shannonandtheclams
Tap to rate this tab
 
# A B C D E F G H I J K L M N O P Q R S T U V W X Y Z